Brides Of Destruction - Brace Yourself Chords & Tabs

 

Brace Yourself Chords & Tabs

Brides Of Destruction Chords & Tabs

Version: 4 Type: Tab 0 ratings
1 star 2 stars 3 stars 4 stars 5 stars
comments

Brace Yourself Tab

   
Hey I couldnt find the right tab for this anywhere so yeah here you go, and this
tab is 100% right (I would know cause I'm god) so you better rate this tab a five.

\ = Slide up
/ = Slide down
H = Hammer on
P = pick off
B = Bend

[Intro]
e|-----------|----------|----------|----------|----------|
b|-----------|----------|----------|----------|----------|
g|-----------|----------|----------|----------|----------|
d|----4-4\5-4|---4-4\5-4|---4-4\5-4|---4-4\5-4|---4-4\5-4|
a|--2--------|-5--------|-4--------|-3--------|-2--------|
e|-----------|----------|----------|----------|----------|
           X2         X2                               X2
--------------------------------------------------------------|
--------------------------------------------------------------|
--------------------------------------------------------------|
--4-4-4-5-4-4-4-4-5-4-7-7-4-5-4-7-7-4-5-4-6-6-4-5-4-5-5-4-5-4-|
--2-2-------2-2-------5-5-------5-5-------4-4-------3-3-------|
--------------------------------------------------------------|

--------------------------------|
--------------------------------|
--------------------------------|
--4-4-4\5-5\7-7/5-5/4-4p2-2h4-4-|
--2-2---------------------------|
--------------------------------|

[Verse]
-------------------------------------------------------------------------|
-------------------------------------------------------------------------|
-------------------------------------------------------------------------|
--4-4--4-5-4--4-4--4-5-4--7-7--4-5-4--7-7--4-5-4--6-6--4-5-4--5-5--4-5-4-|
--2-2---------2-2---------5-5---------5-5---------4-4---------3-3--------|
-------------------------------------------------------------------------|

------------------------------------|
------------------------------------|
------------------------------------|
--4-4--4\5-5\7-7/5-5/4-4p2-2h4-4----|
--2-2-------------------------------|
------------------------------------|

-------------------------------------------------------------------------|
-------------------------------------------------------------------------|
-------------------------------------------------------------------------|
--4-4--4-5-4--4-4--4-5-4--7-7--4-5-4--7-7--4-5-4--6-6--4-5-4--5-5--4-5-4-|
--2-2---------2-2---------5-5---------5-5---------4-4---------3-3--------|
-------------------------------------------------------------------------|

-----------------------------|
-----------------------------|
-----------------------------|
--4-4--4-4-4-4-4-4-4-4-4-4-4-|
--2-2--2-2-2-2-2-2-2-2-2-2-2-|
-----------------------------|

[Chorus]
--------------------------------------------------------------|
--------------------------------------------------------------|
--------------------------------------------------------------|
------4-----5-----7-----5-----4-----4-----5-----7-----5-----4-|
--2-2---2-2---2-2---2-2---2-2---5-5---5-5---5-5---5-5---5-5---|
--------------------------------------------------------------|

---------------------------------------------------|
---------------------------------------------------|
---------------------------4b-----4b-----4b-----4b-|
----4-4\5-4---4-4\5-4--4-4-4b-4-4-4b-4-4-4b-4-4-4b-|
--4---------3----------2-2----2-2----2-2----2-2----|
---------------------------------------------------|

--------------------------------------------------------------|
--------------------------------------------------------------|
--------------------------------------------------------------|
------4-----5-----7-----5-----4-----4-----5-----7-----5-----4-|
--2-2---2-2---2-2---2-2---2-2---5-5---5-5---5-5---5-5---5-5---|
--------------------------------------------------------------|

---------------------------------------------------|
---------------------------------------------------|
---------------------------4b-----4b-----4b-----4b-|
----4-4\5-4---4-4\5-4--4-4-4b-4-4-4b-4-4-4b-4-4-4b-|
--4---------3----------2-2----2-2----2-2----2-2----|
---------------------------------------------------|

[Intro Part]
-------------------------|
-------------------------|
-------------------------|
-----4-4\5-4-----4-4\5-4-|
--2-----------2----------|
-------------------------|

[Verse]
-------------------------------------------------------------------------|
-------------------------------------------------------------------------|
-------------------------------------------------------------------------|
--4-4--4-5-4--4-4--4-5-4--7-7--4-5-4--7-7--4-5-4--6-6--4-5-4--5-5--4-5-4-|
--2-2---------2-2---------5-5---------5-5---------4-4---------3-3--------|
-------------------------------------------------------------------------|

------------------------------------|
------------------------------------|
------------------------------------|
--4-4--4\5-5\7-7/5-5/4-4p2-2h4-4----|
--2-2-------------------------------|
------------------------------------|
[ Tab from: http://www.guitartabs.cc/tabs/b/brides_of_destruction/brace_yourself_tab_ver_4.html ]
-------------------------------------------------------------------------|
-------------------------------------------------------------------------|
-------------------------------------------------------------------------|
--4-4--4-5-4--4-4--4-5-4--7-7--4-5-4--7-7--4-5-4--6-6--4-5-4--5-5--4-5-4-|
--2-2---------2-2---------5-5---------5-5---------4-4---------3-3--------|
-------------------------------------------------------------------------|

-----------------------------|
-----------------------------|
-----------------------------|
--4-4--4-4-4-4-4-4-4-4-4-4-4-|
--2-2--2-2-2-2-2-2-2-2-2-2-2-|
-----------------------------|

[Chorus]
--------------------------------------------------------------|
--------------------------------------------------------------|
--------------------------------------------------------------|
------4-----5-----7-----5-----4-----4-----5-----7-----5-----4-|
--2-2---2-2---2-2---2-2---2-2---5-5---5-5---5-5---5-5---5-5---|
--------------------------------------------------------------|

---------------------------------------------------|
---------------------------------------------------|
---------------------------4b-----4b-----4b-----4b-|
----4-4\5-4---4-4\5-4--4-4-4b-4-4-4b-4-4-4b-4-4-4b-|
--4---------3----------2-2----2-2----2-2----2-2----|
---------------------------------------------------|

--------------------------------------------------------------|
--------------------------------------------------------------|
--------------------------------------------------------------|
------4-----5-----7-----5-----4-----4-----5-----7-----5-----4-|
--2-2---2-2---2-2---2-2---2-2---5-5---5-5---5-5---5-5---5-5---|
--------------------------------------------------------------|

----------------------|
----------------------|
----------------------|
----4-4\5-4---4-4\5-4-|
--4---------3---------|
----------------------|

Then Play:
--8-5-0---8-5-0---8-5-0---8-5-0---8-5-0-8-5-0-8-|
4-------3-------2-------1-------0---------------|
------------------------------------------------|
------------------------------------------------|
------------------------------------------------|
------------------------------------------------|

--8-5-0---8-5-0---8-5-0---8-5-0---8-5-8-5-8-5-8---5-8-5-8-5-8-5-|
4-------3-------2-------1-------0---------------1---------------|
----------------------------------------------------------------|
----------------------------------------------------------------|
----------------------------------------------------------------|
----------------------------------------------------------------|

[Intro Bit thats added on to]
-------------------------------------------|
-------------------------------------------|
-------------------------------------------|
--4-4--4-4\5-4--4-4--4-4\5-7--4-4--4-4\5-4-|
--2-2-----------2-2-----------2-2----------|
-------------------------------------------|

[Chorus]
--------------------------------------------------------------|
--------------------------------------------------------------|
--------------------------------------------------------------|
------4-----5-----7-----5-----4-----4-----5-----7-----5-----4-|
--2-2---2-2---2-2---2-2---2-2---5-5---5-5---5-5---5-5---5-5---|
--------------------------------------------------------------|

---------------------------------------------------|
---------------------------------------------------|
---------------------------4b-----4b-----4b-----4b-|
----4-4\5-4---4-4\5-4--4-4-4b-4-4-4b-4-4-4b-4-4-4b-|
--4---------3----------2-2----2-2----2-2----2-2----|
---------------------------------------------------|

--------------------------------------------------------------|
--------------------------------------------------------------|
--------------------------------------------------------------|
------4-----5-----7-----5-----4-----4-----5-----7-----5-----4-|
--2-2---2-2---2-2---2-2---2-2---5-5---5-5---5-5---5-5---5-5---|
--------------------------------------------------------------|

---------------------------------------------------|
---------------------------------------------------|
---------------------------4b-----4b-----4b-----4b-|
----4-4\5-4---4-4\5-4--4-4-4b-4-4-4b-4-4-4b-4-4-4b-|
--4---------3----------2-2----2-2----2-2----2-2----|
---------------------------------------------------|

--------------------------------------------------------------|
--------------------------------------------------------------|
--------------------------------------------------------------|
------4-----5-----7-----5-----4-----4-----5-----7-----5-----4-|
--2-2---2-2---2-2---2-2---2-2---5-5---5-5---5-5---5-5---5-5---|
--------------------------------------------------------------|

----------------------|
----------------------|
----------------------|
----4-4\5-4---4-4\5-4-|
--4---------3---------|
----------------------|

End With:
---------------------------------------------------------------------------|
---------------------------------------------------------------------------|
---------------------------------------------------------------------------|
-7-7-7-7-7-7-7-7-7-6-6-6-6-6-6-6-6-6-5-5-5-5-5-5-5-5-5-4-4-4-4-4-4-4-4-4-2-|
-5-5-5-5-5-5-5-5-5-4-4-4-4-4-4-4-4-4-3-3-3-3-3-3-3-3-3-2-2-2-2-2-2-2-2-2-0-|
---------------------------------------------------------------------------|

---------------------|
---------------------|
---------------------|
--4-4--7-7--6-6--5-5-|
--2-2--5-5--4-4--3-3-|
---------------------|
Comments