Brides Of Destruction - 2x Dead Chords & Tabs

 

2x Dead Chords & Tabs

Brides Of Destruction Chords & Tabs

Version: 1 Type: Tab 0 ratings
1 star 2 stars 3 stars 4 stars 5 stars
comments

2x Dead Tab

I tabbed this myself after watching a BoD dvd, badass song.
Afraid i dont know the rest but ill keep working on it.

[ Tab from: http://www.guitartabs.cc/tabs/b/brides_of_destruction/2x_dead_tab.html ]
                               * * *                                       
E||----------------------------------|-------------------------------|
B||----------------------------------|-------------------------------|
G||------------------------------5-7-|--------------------------3b---|
D||----------------------------5-----|-------------------------------|
A||--0-0-3-0-2-3-0-2-3-0-2-3-0-------|--0-0-3-0-2-3-0-2-3-0-2-3------|
E||--0-0-3-0-2-3-0-2-3-0-2-3-0-------|--0-0-3-0-2-3-0-2-3-0-2-3------|


                            * * *                                 
----------------------------------|
----------------------------------|
------------------------------5-7-|
----------------------------5-----|
--0-0-3-0-2-3-0-2-3-0-2-3-0-------|
--0-0-3-0-2-3-0-2-3-0-2-3-0-------|

The notes with the * above are Natural Harmonics, just play along with the CD and youll soon get it.

Thanks
Comments