Brickell Edie - Circle Chords & Tabs

 

Circle Chords & Tabs

Brickell Edie Chords & Tabs

Version: 1 Type: Tab 0 ratings
1 star 2 stars 3 stars 4 stars 5 stars
comments

Circle Tab

   
#----------------------------------PLEASE NOTE---------------------------------#
#This file is the author's own work and represents their interpretation of the #
#song. You may only use this file for private study, scholarship, or research. #
#------------------------------------------------------------------------------##
From uunet!spool.mu.edu!uwm.edu!rpi!larsoe Fri Jun 19 11:17:23 PDT 1992
Article: 253 of alt.guitar.tab
Path: nevada.edu!uunet!spool.mu.edu!uwm.edu!rpi!larsoe
From: larsoe@rs6214.ecs.rpi.edu (Eric Dennis Larson)
Newsgroups: alt.guitar.tab
Subject: TAB: Circle by Edie Brickell
Message-ID: 
Date: 18 Jun 92 19:10:20 GMT
Article-I.D.: rpi.vnxwbnr
Lines: 55
Nntp-Posting-Host: rs6214.ecs.rpi.edu

Newsgroups: alt.guitar.tab
Distribution: world
Subject: TAB: Circle by Edie Brickell

Well here's an ascii version.....


                                  Circle
                             by Edie Brickell


                Transcribed by Eric Larson (larsoe@rpi.edu)

[ Tab from: http://www.guitartabs.cc/tabs/b/brickell_edie/circle_tab.html ]
Main Riff:
 D	    Amj6/C#	     Bm7	    A     .  . .	 G
--------------------2-----|------------5~---------------------|---------------
----3-----3-----5-----5---|-------2-3~-----------5--3-2-------|-3----------O--
--------2---------2-----2-|-----2--------------2--------4-(O)-|-O-----H--O----
-O----O-------2-----------|---4--------------2----------------|-O----O-2------
------------4-------------|-2--------------O------------------|-X-------------
--------------------------|-----------------------------------|-3-------------

   A
-|--------------------------------|
-|-2-----------------------------.|
-|-2-----7~----6---4----2-O-------|  The verses use these chords, but the
-|-2---------9---7---5------4-2--.|  melody is different....
-|-O------------------------------|
-|--------------------------------|

Chorus
Bm    D		   Em	G
  And being alone     is the best way to be
Bm	   D		     Em  G
  When I'm by myself it's the  best way to be
Bm         D   		     Em  G
  When I'm all alone it's the  best way to be
Bm   	   D         Em		     A
  When I'm by myself nobody else can say


That's basically the whole song... you know the words :)

Here's the main part to What I am:
Badd9          Dadd9	  Add9		Badd9
--------------------5---|--------------------------2----|
--------------------5---|--------------------------2---.|
-------6---6/--9----9---|-------4-----4------6---6------|
-------4---4/--7---(7)--|-------2---2------4---4-------.|
-2-2-2---2-------5------|-O-O-O---O------2--------------|
------------------------|-------------------------------|

The chord are very "Andy Summerish", this song reminds me a lot of
Message In A Bottle... anyway, have fun!


Comments