Brian Setzer Orchestra - Rock This Town Chords & Tabs

 

Rock This Town Chords & Tabs

Brian Setzer Orchestra Chords & Tabs

Version: 1 Type: Tab 0 ratings
1 star 2 stars 3 stars 4 stars 5 stars
comments

Rock This Town Tab

E---------------------------------------------------------------------------
B--6---X--6---X----6---X--6----6--6-----------------------------------------
G--5---X--5---X----5---X--5----5--5-----------------------------------------
D--4---X--4---X----4---X--4----4--4-----------------------------------------
A--5---X--5---X----5---X--5----5--5--------2--2--3--3--4--4--5--5--4--4--3--
E------------------------------------3---3----------------------------------


E---------------------------------------------------------------------------
B---------4---X--4---X----4---X--4----4--4----------------------------------
G---------3---X--3---X----3---X--3----3--3----------------------------------
D---------2---X--2---X----2---X--2----2--2----------------------------------
A-3--2----3---X--3---X----3---X--3----3--3---------0--0--1--1--2--2--3--3--2
E-------------------------------------------1---1---------------------------

                                           VIB. ^^^^^^^^^^^^^^^^^^^^^^^^^^
E---------------------------------------------------------------------------
B------------------3---3-------6-------8--------4-------------------------X-
G------------------2---2-------7-------7--------6-------------------------X-
D------------------3---3-------7-------6--------5-------------------------X-
A--2--1--1--0------1---1---------------7----------------------------------X-
E------------------------------6----------------5-------------------------X-
[ Tab from: http://www.guitartabs.cc/tabs/b/brian_setzer_orchestra/rock_this_town_tab.html ]
                                             slide down    {{{{{{{{
E--------------------------------------------13---13-----13----------
B-13-----13--13--13--13--13--13--13--13--13--13---13-----13----------
G-12-----12--12--12--12--12--12--12--12--12--12---12-----12----------
D-11-----11--11--11--11--11--11--11--11--11--11---11-----11----------
A-12-----12--12--12--12--12--12--12--12--12--12---12-----12----------
E--------------------------------------------------------------------

Riff A                            Repeat Riff A (7 Times)
E---------------------------------------------------------------------------
B---------------------------------------------------------------------------
G---------------------------------------------------------------------------
D-------4--4--5--5--6--6--7--7--6--6--5--5--3--4----------------------------
A-5--5----------------------------------------------------------------------
E---------------------------------------------------------------------------

   Well, my ba--by and me--- went out---- late Sat-ur-day night---.
E---------------------------------------------------------------------------
B---------------------------------------------------------------------------
G-2--2--4--2--2--2--4--2---2--2--4--2--2--2--4-----2--2--4--2--2--2--4--2--2
D-0--0--0--0--0--0--0--0---0--0--0--0--0--0--0-----0--0--0--0--0--0--0--0--0
A---------------------------------------------------------------------------
E---------------------------------------------------------------------------
Comments