Brian May - God Save The Queen Live Chords & Tabs

 

God Save The Queen Live Chords & Tabs

Brian May Chords & Tabs

Version: 2 Type: Tab 0 ratings
1 star 2 stars 3 stars 4 stars 5 stars
comments

God Save The Queen Live Tab

ARTIST: Brian May
TITLE: God Save The Queen
ALBUM: Party At The Palace
TABBED BY: Martin Kelly

' Hammer on or pull off.


Pick			turn volume knob up to full
E---------------------------------------------------/-------------------------------------
B---------------------------------------------------/-------------------------------------
G-------------------------------3-------------------/-----7-------------------------------
D---------------------------------------------------/-----7-------------------------------
A---------------------------------------------------/-----5-------------------------------
E---------------------------------------------------/-------------------------------------

E-----------------------------------------14'15'17----22-22-22-22-------------------------
B--------------------------12'15--17'19---------------------------------------------------
G---------------11--12'14----------------------------------------------/------------------
D----------12----------------------------------------------------------/------------------
A--9---12--------------------------------------------------------------/------------------
E----------------------------------------------------------------------/------------------

with thumb
E-----------------------------------------------------------------------------------------
B--8-------10----7------8--10----10'12---12---12[13]-12-------10--8----10---8---7---8-----
G-----------------------------------------------------------------------------------------
D-----------------------------------------------------------------------------------------
A-----------------------------------------------------------------------------------------
E-----------------------------------------------------------------------------------------

with pick
E-----------------------7'8'10'12'10-------15----19----20[22]---------20---19----19[20]---
B--7--8'7--------7'8'10-------------------------------------------------------------------
G----------9'7'9--------------------------------------------------------------------------
D-----------------------------------------------------------------------------------------
A-----------------------------------------------------------------------------------------
E-----------------------------------------------------------------------------------------
[ Tab from: http://www.guitartabs.cc/tabs/b/brian_may/god_save_the_queen_live_tab_ver_2.html ]
E--[20]---[20]---19'20---------19---17-----19-----20-19-17-15---17[19]--------20[22]------
B-----------------------------------------------------------------------------------------
G-----------------------------------------------------------------------------------------
D-----------------------------------------------------------------------------------------
A-----------------------------------------------------------------------------------------
E-----------------------------------------------------------------------------------------

E--22[24]----22-20-19-------17--------15---13'15'13'15'13---------------------------------
B--------------------------------------------------------15'16'15'16'15'16'15-------------
G-----------------------------------------------------------------------------14'15'14'15'
D-----------------------------------------------------------------------------------------
A-----------------------------------------------------------------------------------------
E-----------------------------------------------------------------------------------------

E-----------------------------------------------------------------------------------------
B-----------------------------------------------------------------------------------------
G--14-15-14-12----------------------------------------------------------------------------
D--------------15-14-12--------------------------5-5--------------------------------------
A-----------------------15-14-12-----------------5-5--------------------------------------
E--------------------------------15--------------3-3--------------------------------------

tremble pick
E-----------------------------------------------------------------------------------------
B-----------------------------------------------------------------------------------------
G---------------------9---11----12---14--16----16-14-16-14-16-14-16-14--12-----/----------
D--5-----7-----9-------------------------------17-16-17-16-17-16-17-16--12-----/----------
A-----------------------------------------------------------------------------------------
E-----------------------------------------------------------------------------------------

E-----------------------------------------------------------------------------------------
B-----------------------------------------------------------------------------------------
G-----------------------------------------------------------------------------------------
D--5----------5--------55555---5-5--------------------------------------------------------
A--5----------5--------55555---5-5--------------------------------------------------------
E--3----------3--------33333---3-3--------------------------------------------------------
Comments