Brevity - In Lost Chords & Tabs

 

In Lost Chords & Tabs

Brevity Chords & Tabs

Version: 1 Type: Tab 0 ratings
1 star 2 stars 3 stars 4 stars 5 stars
comments

In Lost Tab

Author/Artist: brevity 
Title: im lost 
Album: no album 
Transcribed by: beerman 
this song is hard to play and fugure out, there a cool band though. if any one c 

an do this better be my guest. ps  there guiter player kicks ass dont expect to 
learn this to quickly, i only figured this out because hes my friend 

-|-------------------------------------------------|-------------------------- 
-|-2----------------------------3b6----------------|-------------------------- 
-|-----2-----------3----------3-------2--------3--3|-------------------------- 
-|-------2------3----3--6--4------------2------3--3|-------------------------- 
-|---------2---5--------------------------2----3--3|-------------------------- 
-|-----------4------------------------------2--3--3|-------------------------- 
   intro x2                                                                    

-|-------------------------1-------------------------------------------------- 
-|-------------------------2----------5--------------------------------------- 
-|-------------------------2--------4---5------------------------------------- 
-|-------------------------6------3-------5----------------------------------- 
-|---17b19--21-21-21-21b24-1----2-----------6--------------------------------- 
-|-------------------------1--1--------------7-7b8---------------------------- 
   believe it our not this is the chorus x2                                    

----------------------------------|------------------------------------------- 
----------------------------------|------------------------------------------- 
----------------------------------|------------------------------------------- 
-1-2----1-2------------1-0----12--|---2-2-2-2-3-5-7-9-10-10-12b3-2------------ 
-1-2-3--1-2-3------9b9-1-0----12--|-------------------------------2-----4b5-1- 
-----------------------1-9-10-----|---------------------------------3-3------- 
                                     solo#1                                    

----------------5---------------------------|------5-------------------------- 
----------------3---------------------------|-4--5-----8-----------5-----5---- 
----------------2---------------------------|--------7---------6------7------- 
----------------2---------------------------|------------4-------3------------ 
------3-4-5-4b4-2-17b19-20-20-21-22-23-24-2-|----------------5---------------- 
-12b3-3-4-5---------------------------------|--------------------------------- 
                                              solo#2                           

---------------------------------------------------------------------------3-- 
----------------------------------16-------------------------------------3---- 
-1-2-----2--4------------------14----11--------------------------------7------ 
-----4b6-2--4-5-------------13----------11------------------3-4------5-------- 
---------3--4--5-6-7-8-9b12----------------11------12-------3-4----4---------- 
----------------------------------------------1-11----24b21-3-4-32------------ 
                                                                               
[ Tab from: http://www.guitartabs.cc/tabs/b/brevity/in_lost_tab.html ]
-7---------------------------------------------------------------------------- 
----3--------------------------------------------5---------------------------- 
--------2--------------------------------------3----5------------------------- 
---------2-----------------------------------3--------5----------------------- 
----------2--------------------------------5------------5--------------------- 
-----------2-2-3-5-6-1-5-8-3-2-5-7-8-3-3-6----------------5------------------- 
                                                                               

-------------------21-21-21-21-21b23-------1-2-3-2-4-2--2-6-3----------------- 
----------------24-------------------2------------------------2-5--6-7-4-3-2-- 
-------------13----------------------2---------------------------------------- 
----------12-------------------------2---------------------------------------- 
-17b15b16----------------------------2---------------------------------------- 
-------------------------------------2---------------------------------------- 
                                                                               

----------------------------------------------|------------------------------- 
-5-7b-----------------------------------------|------------------------------- 
------4-3-2------------------------5p3--------|------------------------------- 
------------5-5-6---4b----4p2----------2-3--12|---1-2-3/12-----7b8------------ 
------------------3-4b-----------------2-3--12|---1-2-3/12--7b8--------------- 
--------------------4b-----------------2-3--12|---1-2-3/12--------3----------- 
                                                 outro                         

------------------------------------------------------------------------------ 
------------------------------------------------------------------------------ 
-------2-3-------------------------------------------------------------------- 
-----2-----3---4---1---3---5---7-8---9----12b13---1---2---3---2-------7-3----- 
---2---------3---2---2---4---6-----8---10-------1---2---2---3-----4----------- 
-2--------------------------------------------------------------3---5--------- 
                                                                               

-|----21-21-21-21-21--21-21-21-21-22b23-24-24b21------------------------------ 
-|---------------------------------------------------------------------------- 
-|---------------------------------------------------------------------------- 
-|------------------------------------------------3--------------------------- 
-|--------------------------------------------------3---2---1---3-----3------- 
-|----------------------------------------------------3---4---5---6-7--------- 
                                                                               

----------------------|------------------------------------------------------- 
----------------------|------------------------------------------------------- 
----------------------|------------------------------------------------------- 
------------2b5-------|------------------------------------------------------- 
---------3v-----2-2-2-|------------------------------------------------------- 
-----2b2--------------|------------------------------------------------------- 
                                                                               

------------------------------------------------------------------------------ 
------------------------------------------------------------------------------ 
------------------------------------------------------------------------------ 
------------------------------------------------------------------------------ 
------------------------------------------------------------------------------ 
------------------------------------------------------------------------------ 
                                                                               

Comments