Brent David - Freelove Chords & Tabs

 

Freelove Chords & Tabs

Brent David Chords & Tabs

Version: 1 Type: Tab 0 ratings
1 star 2 stars 3 stars 4 stars 5 stars
comments

Freelove Tab

   
Tablature for David Brent's Freelove






#----------------------------------PLEASE NOTE---------------------------------#
#This file is the author's own work and represents their interpretation of the #
#song. You may only use this file for private study, scholarship, or research. #
#------------------------------------------------------------------------------#

FREELOVEAs recorded by David BrentTranscribed by DecapitatorGtr I (E A D G B E) - 'Untitled'

  C     F          Am    G
  Gtr I
      PM               PM
  E E E Q  E E E   E E E Q  E E E
|-----0----1---1-|-----------------|
|-----1----1---1-|-----------------|
|-----0----2---2-|-2-2-2-0--0-0-0--|
|---2------------|-2-2-2-0--0-0-0--|
|-3-----3----3---|-0-0-0-2--2-2-2--|
|-------1----1---|-----------------|


    C     F          Am    G
    E E E Q  E E E   E E E Q  E E E  4x
||--0-0-x-1--1-x-1-|-0-0-x-3--3-x-3--||
||o-x-1-x-1--1-x-1-|-1-1-x-3--3-x-3-o||
||--x-0-x-2--2-x-2-|-2-2-x-0--0-x-0--||
||--2-2-x-3--3-x-3-|-2-2-x-0--0-x-0--||
||o-3-3-x-3--3-x-3-|-0-0-x-2--2-x-2-o||
||--------1--1-x-1-|-0-0-x-3--3-x-3--||


    C  F           Am G
    Q  H    +Q     Q  H    +Q    4x
||--0--1----(1)--|-0--3----(3)---||
||o-1--1----(1)--|-1--3----(3)--o||
||--0--2----(2)--|-2--0----(0)---||
||--2--3----(3)--|-2--0----(0)---||
||o-3--3----(3)--|-0--2----(2)--o||
||-----1----(1)--|-0--3----(3)---||

[ Tab from: http://www.guitartabs.cc/tabs/b/brent_david/freelove_tab.html ]
  C     F          Am    G
  E E E Q  E E E   E E E Q  E E E
|-0-0-x-1--1-x-1-|-0-0-x-3--3-x-3--|
|-x-1-x-1--1-x-1-|-1-1-x-3--3-x-3--|
|-x-0-x-2--2-x-2-|-2-2-x-0--0-x-0--|
|-2-2-x-3--3-x-3-|-2-2-x-0--0-x-0--|
|-3-3-x-3--3-x-3-|-0-0-x-2--2-x-2--|
|-------1--1-x-1-|-0-0-x-3--3-x-3--|




Duration Legend
---------------
W - whole; H - half; Q - quarter; E - 8th; S - 16th; T - 32nd; X - 64th; a - acciaccatura
+ - note tied to previous; . - note dotted; .. - note double dotted
Uncapitalized letters represent notes that are staccato (1/2 duration)
Irregular groupings are notated above the duration line
Duration letters will always appear directly above the note/fret number it represents the
duration for.  Duration letters with no fret number below them represent rests.  Multi-
bar rests are notated in the form Wxn, where n is the number of bars to rest for.  Low
melody durations appear below the staff

Tablature Legend
----------------
 h   - hammer-on
 p   - pull-off
 b   - bend
 pb  - pre-bend
 r   - bend release (if no number after the r, then release immediately)
 /\  - slide into or out of (from/to "nowhere")
 s   - legato slide
 S   - shift slide
<n> - natural harmonic
[n]  - artificial harmonic
n(n) - tapped harmonic
 ~   - vibrato
 tr  - trill
 T   - tap
 TP  - trem. picking
 PM  - palm muting
\n/  - tremolo bar dip; n = amount to dip
 \n  - tremolo bar down
 n/  - tremolo bar up
/n\  - tremolo bar inverted dip
 =   - hold bend; also acts as connecting device for hammers/pulls
 <> - volume swell (louder/softer)
 x   - on rhythm slash represents muted slash
 o   - on rhythm slash represents single note slash

Misc Legend
-----------
 |  - bar
||  - double bar
||o - repeat start
o|| - repeat end
*|  - double bar (ending)
 :  - bar (freetime)
 $  - Segno
 &  - Coda
Tempo markers - <E/E./Q/Q./H/H.> = BPM(8/16=s8/s16), where s8 = swing 8ths, s16 = swing 16ths

** Generated using Power Tab Editor by Brad Larsen:   The Official Power Tab Web Site


Comments