Brendan Benson - Tiny Spark Chords & Tabs

 

Tiny Spark Chords & Tabs

Brendan Benson Chords & Tabs

Version: 1 Type: Bass Tab 0 ratings
1 star 2 stars 3 stars 4 stars 5 stars
comments

Tiny Spark Bass Tab

   
-------------------------------------------------------------------------------
     Tiny Spark - Brendan Benson
-------------------------------------------------------------------------------

Tabbed By : daft_evader
e-mail: daft_evader[at]hotmail[dot]com

Tuning: Standard

Jack White describes this man as his favourite musician, good to see the man has taste. 
is off his second album Lapalco.

The main verse riff is:

G----------------------------------------------------------|
D----------------------------------------------------------|
A---------------5-5-5--3/5-3-------------------------------|
E-3---3---3-3-3--------------------------------------------|

Repeat this as nessecary until the  the bridge which reads (given that >>indicates play 
times):

G----------------------------------------------------------|
D----------------------------------------------------------|
A----------------------------------------------------------|
E-3\-3-3-5-5-2-2-3>>3>>3>>3-3-3-3/-------------------------|

G----------------------------------------------------------|
D----------------------------------------------------------|
A----------------------------------------------------------|
E-3---3>>-3-3-5-5-2-2-3-3-5>>5>>5>>5-5-5-5/----------------|

Then Back to the verse for 5 lines.

Follow by rturning to the bridge.

Then the chorus which is:
[ Tab from: http://www.guitartabs.cc/tabs/b/brendan_benson/tiny_spark_btab.html ]
G----------------------------------------------------------|
D----------------------------------------------------------|
A-3---3-3-3/-------------3---3-3-3/------------5>>5>>------|
E--------------3---3-3-5-------------3---3-3-5-------------|


G----------------------------------------------------------|
D----------------------------------------------------------|
A-3>>3>>3>>3>>/-15-14-15-14-15-14-15-14--------------------|
E----------------------------------------------------------|

(note that its 15 and 14th frets here {ie C and B})

Then return to the verse for 8 lines.

Then play the bridge once.

Finally end with:

G----------------------------------------------------------|
D----------------------------------------------------------|
A----------------------------------------------------------|
E--3-3-3-5-5-2-2-3>>3>>3>>3-3-3-3/-------------------------|

G----------------------------------------------------------|
D----------------------------------------------------------|
A----------------------------------------------------------|
E-3---3>>-3-3-5-5-2-2-3-3-5>>5>>3>>3>>1>>1>>0>>0>>---------|

G----------------------------------------------------------|
D----------------------------------------------------------|
A-3>>3>>3>>3>>3>>3>>/-15-14-15-14-15-14-15-14--------------|
E---------------------------------------------15-----------|


| /  slide up
| \  slide down
| h  hammer-on
| p  pull-off
| ~  vibrato
| +  harmonic
| x  Mute note
===============================================================================
Comments