Breeders - Saints Chords & Tabs

 

Saints Chords & Tabs

Breeders Chords & Tabs

Version: 1 Type: Bass Tab 0 ratings
1 star 2 stars 3 stars 4 stars 5 stars
comments

Saints Bass Tab

   
Song: Saints
Artist: The Breeders

This whole song is played with distortion

Verse-played six times

G|---------------------------------------------------------------------------
-------------------|
D|---------------------------------------------------------------------------
-------------------|
A|-(1-2)/9-9-9-9-9-9--1-2/9-9-9-9-9-9--1-2/7-7-7-7-7-7--1-2/9-9-9-9-9-9-|
E|---------------------------------------------------------------------------
-------------------|
  
  Those two notes in parenthesis aren't always played.

Chorus-played twice
[ Tab from: http://www.guitartabs.cc/tabs/b/breeders/saints_btab.html ]
G|---------------------------------------------------------------------------
-------------------|
D|---------------------------------------------------------------------------
-------------------|
A|-(1-2)/9-9-9-9-9-9--1-2/9-9-9-9-9-9--1-2/7-7-7-7-7-7--1-2/9-9-9-9-9-9-|
E|---------------------------------------------------------------------------
-------------------|

The second time play that last group of eight like this:

G|----------------------------------|
D|----------------------------------|
A|-1-2/9-9-9-9-9-9-9-9-9-9-|
E|----------------------------------|

During the solo, play these notes at the same time the drums are played

G|------------------------------------|
D|------------------------------------|   (Each group equals one drum hit)
A|-3-3-3---3---3-3-3---3-3-3--|    
E|------------------------------------|

Verse-play twice

Chorus-play twice

G|-----------------------------------------------------------|
D|-----------------------------------------------------------|
A|-1-2-(pause)--7-7-7-7-7-7--1-2/9-9-9-9-9-9-|
E|-----------------------------------------------------------|

After that, just play the verse until the song ends

Questions and/or comments-AlienGreg@AOL.com

Comments