Breeders - Pod Album Chords & Tabs

 

Pod Album Chords & Tabs

Breeders Chords & Tabs

Version: 1 Type: Tab 0 ratings
1 star 2 stars 3 stars 4 stars 5 stars
comments

Pod Album Tab

   
#----------------------------------PLEASE NOTE---------------------------------#
#This file is the author's own work and represents their interpretation of the #
#song. You may only use this file for private study, scholarship, or research. #
#------------------------------------------------------------------------------#
pod by The Breeders

the breeders were:
kim deal: vocals, guitar
tanya donelly: vocals, guitar
josephine wiggs: vocals, bass guitar
shannon doughton: vocals, drums


 Compiled by Edu Sebastian at emarco@cfp.upv.es on august95.
 Thanks Edmond, thanks Wyatt.
 I just only put togheter what was there.

 _____________________________

 1. Glorious
      2. Doe
  3. Happiness is a Warm Gun
4. Oh! --> [MISSING]
5. Hellbound
     6. When I was a Painter
         7. Fortunately Gone
     8. Iris
   9. Opened
     10. Only in 3's
      11. Lime House
       12. Metal Man
 _____________________________


GLORIOUS by kim deal(The Breeders)

transcribed by Edmond Hum 



                                                
 e-------------------|--12---11-12-----|   e--------------------------------------
 b----13---12-13-10--|-------------10--|   b----10--------------------------------
 g-------------------|-----------------|   g-------9s2-12----------9s4------------
 d-------------------|-----------------|   d--------------12s5-7------------------
 a------[ 2x ]-------|-----------------|   a--------------------------------------
 e-------------------|-----------------|   e--------------------------------------




 e-------------------|--12---11------|--10-8-------8-10---
 b----13---12-13-10--|----------10---|-------9-7-9--------
 g-------------------|---------------|--------------------
 d-------------------|---------------|--------------------
 a-----[ 2x ]--------|---------------|-----[ 4x ]---------
 e-------------------|---------------|--------------------

______________________________________________


DOE by kim deal(The Breeders)

transcribed by Edmond Hum 

      Caug   E       B    Ebm   Em
 e---------------|---7----6-----7-------------------------
 b-----0---------|---7----7-----8-------------------------
 g-----1-----1---|---8----8-----9-------------------------
 d-----2-----2---|---9----8-----9-------------------------
 a-----3-----2---|---9----6-----7-------------------------
 e---------------|---7------------------------------------



_____________________________________________


HAPPINES IS A WARM GUN by john lennon & paul mccartney
performed by the breeders
transcribed by Edmond Hum 

      

 e-------------------------------------------------------
 b-------------------------------------------------------
 g-------------------------------------------------------
 d-----5-------------------------------------------------
 a---7---7-------5h7-5-----------------------------------
 e---------8-5-8-------8-5-------------------------------


 e-------------------------------------------------------
 b-------------------------------------------------------
 g-------------------------------------------------------
 d-----5-------------------------------------------------
 a---7---7-------5-7-----7-8-9-10------------------------
 e---------8-5-8-----------------------------------------




OH! by kim deal(The Breeders)

 --> is missing

____________________________________________


HELLBOUND by kim deal(The Breeders)

transcribed by Edmond Hum 


      B    Ebm    A
 e----7-----6-----5--------------------------------------
 b----7-----7-----5--------------------------------------
 g----8-----8-----6--------------------------------------
 d----9-----8-----7--------------------------------------
 a----9-----6-----7--------------------------------------
 e----7-----------5--------------------------------------

---start---

 e-------------------------------------------------------
 b-------------------------------------------------------
 g-------------------------------------------------------
 d-------------------------------------------------------
 a------------6------------------------------------------
 e----7-7-7-----5----[ 11x ] ----------------------------

                                         B



 e----0-0-0-0-0-0-0-0------------------------------------
 b----0-0-3-3-5-5-7-7------------------------------------
 g-------------------------------------------------------
 d-------------------------------------------------------
 a-------------------------------------------------------
 e-------------------------------------------------------

 e----0-0-0-0-0-0-0--------------0-0-0-0-0-0-0-0-0-------
 b----0-0-3-0-0-3-0-- [7x] ------0-0-5-5-7-7-9-9-9-------
 g-------------------------------------------------------
 d-------------------------------------------------------
 a-----------------------[ feel free to improvise this]--
 e-------------------------------------------------------

 e-------------------------------------------------------
 b---------6s7s6-----------------------------------------
 g----4----------6---------------------------------------
 d--------------------- [ 2x ] --------------------------
 a-------------------------------------------------------
 e-------------------------------------------------------



 e----0-0-0-0-0-0-0-0------------------------------------
 b----0-0-3-3-5-5-7-7------------------------------------
 g-------------------------------------------------------
 d-------------------------------------------------------
 a-------------------------------------------------------
 e-------------------------------------------------------

 e----0-0-0-0-0-0-0--------------0-0-0-0-0-0-0-0-0-------
 b----0-0-3-0-0-3-0-- [7x] ------0-0-5-5-7-7-9-9-9-------
 g-------------------------------------------------------
 d-------------------------------------------------------
 a-----------------------[ feel free to improvise this]--
 e-------------------------------------------------------


 e-------------------------------------------------------
 b---------6s7s6-----------------------------------------
 g----4----------6---------------------------------------
 d--------------------- [ 2x ] --------------------------
 a-------------------------------------------------------
 e-------------------------------------------------------

E


 e----------------------------------6---5----------------
 b----------------------------------7---5----------------
 g----------------------------------8---6----------------
 d----------------------------------8---7----------------
 a------------6---------------------6---7----------------
 e----7-7-7-----5--[2x]-----7-7-7-------5----------------

B Ebm A  - [5x]


 e----0-0-0-0-0-0-0-0------------------------------------
 b----0-0-3-3-5-5-7-7------------------------------------
 g-------------------------------------------------------
 d-------------------------------------------------------
 a-------------------------------------------------------
 e-------------------------------------------------------

 e----0-0-0-0-0-0-0--------0-0-0-0-0-0-0-0---0--0--0--0--
 b----0-0-3-0-0-3-0--[7x]--0-0-5-5-7-7-9-9---15-18-15-9--
 g-----------------------------------------------[etc...]
 d-------------------------------------------------------
 a-----------------------[ feel free to improvise this]--
 e-------------------------------------------------------

well hellbound, hellbound, hellbound, hellbound

__________________________________________


WHEN I WAS A PAINTER by kim deal(The Breeders)

transcribed by Edmond Hum 

 e-------------------------------------------------------
 b-------------------------------------------------------
 g-------------------------------------------------------
 d-------------------------------------------------------
 a----5-5-0-5-5--[11x]----5-5----------------------------
 e-------------------------------------------------------



when i was a painter i painted you well

 e-------------------------------------------------------
 b-------------------------------------------------------
 g-------------------------------------------------------
 d-------------------------------------------------------
 a----5-5-0-5-5--[5x]----5-5-----------------------------
 e-------------------------------------------------------



                            D
 e---------------------|----10----|----------------------
 b----12b13b12---------|----10----|----12b13b12----------
 g----12b13b12---[4x]--|----11----|----12b13b12---[3x]---
 d------|--------------|----12----|----------------------
 a-----[b=bend note]---|----12----|----------------------
 e---------------------|----10----|----------------------

 e-------------------------------------------------------
 b-------------------------------------------------------
 g-------------------------------------------------------
 d-------------------------------------------------------
 a----5-5-0-5-5--[9x]----5-5-----------------------------
 e-------------------------------------------------------

 e-------------------------------------------------------
 b-------------------------------------------------------
 g-------------------------------------------------------
 d-------------------------------------------------------
 a----5---10s8s10s8-5---[9x]----10b11--------------------
 e-------------------------------------------------------

_____________________________________________


FORTUNATELY GONE by kim deal(The Breeders)

From: wdavis@decserv1.eecs.wsu.edu (Wyatt Davis - MME)
Subject: CRD:  "Fortunately Gone"  The Breeders (w/ correction) 

transcribed by Edmond Hum 

           
solo:

--------------------------------------------------------------------
--------------------------------------------------------------------
--------------------------------------------------------------------
-----------------------------4--------------------------------------
--4-2-1-0----0-2-4-2-4-2-4/6---6------4-2-1-0---0-2-4-2-1-2---------
----------4-----------------------------------3---------------------

--------------------------------------------------------------------
--------------------------------------------------------------------
--------------------------------------------------------------------
--------------------------------------------------------------------
--2-1-2----0-2-4-2--1-1/2---2-2/4---4-4/6---6-6/7-------------------
--------3-----------------------------------------------------------


              
 d-------------------------------------------------------
 a---6-7----2-4-2s9--------------------------------------
 e-------------------------------------------------------

______________________________________________


IRIS by kim deal(The Breeders)

transcribed by Edmond Hum 



        F#  
 e------2------------------------------------------------
 b------2------------------------------------------------
 g------3------------------------------------------------
 d------4------------------------------------------------
 a------4------------------------------------------------
*e----0h2-----

---start---

 e----------------------
 b----4-3---4-4-3-4-3---
 g----------------------
 d----------------------
 a----------------------
 e----------------------



-------------------------[ special ]-----------------------


 e--------------------------------------
 b-----------------------13-13-13-13----
 g---6-6-6-6s--9-9-9-9s--11-11-11-11----  
 d--------------------------------------
 a--------------------------------------
 e--------------------------------------

------------------------[ end special ] -------------------



 e--------------------------------
 b----12-11---11-11-11s9-7--------
 g--------------------------------
 d--------------------------------
 a--------------------------------
 e--------------------------------


F# 



 e--------------------------------
 b--------------------------------
 g--------------------------------
 d--------------------------------
 a------------4s--11s4s7----------     
 e----2---4h5--------------9s2----


-------------------------[ special ]-----------------------





 e-------------------------------------
 b-----------------------13-13-13-13---
 g---6-6-6-6s--9-9-9-9s--11-11-11-11---  
 d-------------------------------------
 a-------------------------------------
 e-------------------------------------

------------------------[ end special ] -------------------


 e----------------------------
 b----12-11---11-11-11s9-7----
 g----------------------------
 d----------------------------
 a----------------------------
 e----------------------------

______________________________________________


OPENED by kim deal(The Breeders)

transcribed by Edmond Hum 


      C#m     Ebm     G
[ Tab from: http://www.guitartabs.cc/tabs/b/breeders/pod_album_tab.html ]
 e-----3-------6------3----------------------------------
 b-----4-------7------3----------------------------------
 g-----5-------8------4----------------------------------
 d-----5-------8------5----------------------------------
 a-----3-------6------5----------------------------------
 e--------------------3----------------------------------

---start---


 e-------------------------------------------------------
 b-------------------------------------------------------
 g-------------------------------------------------------
 d--------5---------8------------------------------------
 a----3-3---3---6-6---6--------- [ 2x ] -----------------
 e------------------------3------------------------------


 e-------------------------------------------------------
 b-------------------------------------------------------
 g-------------------------------------------------------
 d----10--10--10s9----10--10--10s5-----------------------
 a-------------------------------------------------------
 e-------------------------------------------------------

 e-------------------------------------------------------
 b--------------------9-9s8-8-----------------8-8s7-7----
 g--------------------8-8s7-7-----------------7-7s5-5----
 d----10--10--10s9--------------10--10--10s5-------------
 a-------------------------------------------------------
 e-------------------------------------------------------


 e-------------------------------------------------------
 b-------------------------------------------------------
 g-------------------------------------------------------
 d-------------------------------------------------------
 a-------------------------------------------------------
 e----3-3-3-3-3-3-3-3----0-0-0-0-0-0-0-0----- [ 3x ] ----

 e-------------------------------------------------------
 b-------------------------------------------------------
 g-------------------------------------------------------
 d--------5---------8------------------------------------
 a----3-3---3---6-6---6--------- [ 2x ] -----------------
 e------------------------3------------------------------


 e-------------------------------------------------------
 b--------------------9-9s8-8-----------------8-8s7-7----
 g--------------------8-8s7-7-----------------7-7s5-5----
 d----10--10--10s9--------------10--10--10s5-------------
 a-------------------------------------------------------
 e-------------------------------------------------------


 e-------------------------------------------------------
 b-------------------------------------------------------
 g-------------------------------------------------------
 d-------------------------------------------------------
 a-------------------------------------------------------
 e----3-3-3-3-3-3-3-3----0-0-0-0-0-0-0-0----- [ 3x ] ----


 e-------------------------------------------------------
 b-------------------------------------------------------
 g-------------------------------------------------------
 d--------5---------8------------------------------------
 a----3-3---3---6-6---6--------- [ 2x ] -----------------
 e------------------------3------------------------------


 e-------------------------------------------------------
 b--------------------9-9s8-8-----------------8-8s7-7----
 g--------------------8-8s7-7-----------------7-7s5-5----
 d----10--10--10s9--------------10--10--10s5-------------
 a-------------------------------------------------------
 e-------------------------------------------------------


 e-------------------------------------------------------
 b-------------------------------------------------------
 g-------------------------------------------------------
 d-------------------------------------------------------
 a-------------------------------------------------------
 e----3-3-3-3-3-3-3-3----0-0-0-0-0-0-0-0----- [ 3x ] ----

C#m  Ebm          G
     robin flies again
C#m  Ebm          G
     robin flies again
C#m Ebm G  - [4x]

__________________________________________________


ONLY IN 3's by kim deal & tanya donelly(The Breeders)

transcribed by Edmond Hum 





 e----5---7-7-7-7-9---7-5----7-7-7-7-9---7-5-------------
 b----5---7-7-7-7-7---7-5----7-7-7-7-7---7-5-------------
 g-------------------------------------------------------
 d-------------------------------------------------------
 a-------------------------------------------------------
 e-------------------------------------------------------



 e----7-5-3-2-3-5----------------------------------------
 b--------------5----------------------------------------
 g-------------------------------------------------------
 d-------------------------------------------------------
 a-------------------------------------------------------
 e-------------------------------------------------------



 e----3-3-3-3-0-0----------------------------------------
 b----5-5-3-3-2-2----------------------------------------
 g----------------0-0------------------------------------
 d-------------------------------------------------------
 a-------------------------------------------------------
 e-------------------------------------------------------


 e----3-3--5-3-3-3---5-5---5-7-5-5-----------------------
 b----3-3--3-3-3-3---5-5---5-5-5-5----- [ 3x ] ----------
 g-------------------------------------------------------
 d-------------------------------------------------------
 a-------------------------------------------------------
 e-------------------------------------------------------



 e----33333333-33333333-33333333-33333333----------------
 b----55555555-55555555-55555555-55555555----------------
 g-------------------------------------------------------
 d---------------------- [ play 16th notes ] ------------
 a-------------------------------------------------------
 e-------------------------------------------------------



 e----3-3-3-3-0-0------|--h3p0---------------------------
 b----5-5-3-3-2-2------|---------------------------------
 g----------------0-0--|--[ hammer and pull off ]--------
 d---------------------|--[ several times       ]--------
 a---------------------|---------------------------------
 e---------------------|---------------------------------


 e----5---7-7-7-7-9---7-5--------------------------------
 b----5---7-7-7-7-7---7-5--------------------------------
 g-------------------------------------------------------
 d-------------------------------------------------------
 a-------------------------------------------------------
 e-------------------------------------------------------


 e----88888888-77777777-88888888-77777777----------------
 b----55555555-55555555-55555555-55555555----------------
 g-------------------------------------------------------
 d---------------------- [ play 16th notes ] ------------
 a-------------------------------------------------------
 e-------------------------------------------------------


 e----3-3--5-3-3-3---5-5---5-7-5-5-----------------------
 b----3-3--3-3-3-3---5-5---5-5-5-5----- [ 3x ] ----------
 g-------------------------------------------------------
 d-------------------------------------------------------
 a-------------------------------------------------------
 e-------------------------------------------------------




 e----77777777-77777777-77777777-77777777----------------
 b----55555555-55555555-55555555-55555555----------------
 g-------------------------------------------------------
 d---------------------- [ play 16th notes ] ------------
 a-------------------------------------------------------
 e-------------------------------------------------------

______________________________________________


LIME HOUSE by kim deal(The Breeders)
transcribed by Edmond Hum 






 e-----5-3---
 b-----------
 g---2-------
 d-----------
 a-----------
 e-----------


 e-----5-3-----------------------------------------------
 b-----------2-1-2-1-2---2-1-2-5-2-----------------------
 g---2-------------------------------2-0-2-0-2-0-0-0-----
 d-------------------------------------------------------
 a-------------------------------------------------------
 e-------------------------------------------------------



 e-------------------------------------------5-3---------
 b---0-2-0----2-0-0-2-0-0-2-0-0-0-2-0--------------------
 g-----------------------------------------2-------------
 d-------------------------------------------------------
 a-------------------------------------------------------
 e-------------------------------------------------------



 e---3-3-3-3---1-1-1-1---6-6-6-6---8-8-8-8---------------
 b---3-3-3-3---1-1-1-1---6-6-6-6---8-8-8-8---- [ 3x ] ---
 g-------------------------------------------------------
 d-------------------------------------------------------
 a-------------------------------------------------------
 e-------------------------------------------------------

 e---3-3--4--5-5-5-5-------------------------------------
 b---3-3--4--5-5-5-5--- [ 4x] ---------------------------
 g-------------------------------------------------------
 d-------------------------------------------------------
 a-------------------------------------------------------
 e-------------------------------------------------------



 e-------------------------------------------5-3---------
 b---0-2-0----2-0-0-2-0-0-2-0-0-0-2-0--------------------
 g-----------------------------------------2-------------
 d-------------------------------------------------------
 a-------------------------------------------------------
 e-------------------------------------------------------

 e----------5-5-3-----5-3--------------------------------
 b-------------------------------------------------------
 g---0-2----------0-2-----0-2----------------------------
 d-------------------------------------------------------
 a-------------------------------------------------------
 e-------------------------------------------------------

 e-----5-3-----------------------------------------------
 b-----------2-1-2-1-2---2-1-2-5-2-----------------------
 g---2-------------------------------2-0-2-0-2-0-0-0-----
 d-------------------------------------------------------
 a-------------------------------------------------------
 e-------------------------------------------------------


i am in a lime house


 e---3-3-3-3---1-1-1-1---6-6-6-6---8-8-8-8---------------
 b---3-3-3-3---1-1-1-1---6-6-6-6---8-8-8-8---- [ 4x ] ---
 g-------------------------------------------------------
 d-------------------------------------------------------
 a-------------------------------------------------------
 e-------------------------------------------------------


 e---3-3--4--5-5-5-5-------------------------------------
 b---3-3--4--5-5-5-5--- [ 4x ] --------------------------
 g-------------------------------------------------------
 d-------------------------------------------------------
 a-------------------------------------------------------
 e-------------------------------------------------------

____________________________________________


METAL MAN by kim deal(The Breeders)

transcribed by Edmond Hum 

 e---------------------
 b---------------------
 g---------------------
 d------5-5-----7-5----
 a----5-------5--------
 e---------------------

A7 D7 [10x]



 e-------------------------------------------------------
 b-------------------------------------------------------
 g-------------------------------------------------------
 d-------------------------------------------------------
 a----0-0-0-0--0-0-0-0--3-3-3s5--5-5-5-5------[3x]-------
 e-------------------------------------------------------



 e-------------------------------------------------------
 b-------------------------------------------------------
 g-------------------------------------------------------
 d-------------------------------------------------------
 a----0-0-0-0--0-0-0-0--0-0-0-5--5-5-5-5-----------------
 e-------------------------------------------------------

A7 D7 [3x]
A C D [3x] - A
A7 D7 [4x]



 e-------------------------------------------------------
 b-------------------------------------------------------
 g-------------------------------------------------------
 d-------------------------------------------------------
 a----0-0-0-0--0-0-0-0--3-3-3s5--5-5-5-5------[3x]-------
 e-------------------------------------------------------



 e-------------------------------------------------------
 b-------------------------------------------------------
 g-------------------------------------------------------
 d-------------------------------------------------------
 a----0-0-0-0--0-0-0-0--0-0-0-5--5-5-5-5-----------------
 e-------------------------------------------------------

A7 D7 [4x]



 e-----5-3---
 b-----------
 g---2-------
 d-----------
 a-----------
 e-----------
Comments