Breeders - Opened Chords & Tabs

 

Opened Chords & Tabs

Breeders Chords & Tabs

Version: 2 Type: Tab 0 ratings
1 star 2 stars 3 stars 4 stars 5 stars
comments

Opened Tab

   
#----------------------------------PLEASE NOTE---------------------------------#
#This file is the author's own work and represents their interpretation of the #
#song. You may only use this file for private study, scholarship, or research. #
#------------------------------------------------------------------------------##

by kim deal(The Breeders)
transcribed by Edmond Hum 


      C#m     Ebm     G

 e-----3-------6------3-----------------------------------|
 b-----4-------7------3-----------------------------------|
 g-----5-------8------4-----------------------------------|
 d-----5-------8------5-----------------------------------|
 a-----3-------6------5-----------------------------------|
 e--------------------3-----------------------------------|
  start--------------------------------------------------|


 e-------------------------------------------------------|
 b-------------------------------------------------------|
 g-------------------------------------------------------|
 d--------5---------8------------------------------------|
 a----3-3---3---6-6---6--------- [ 2x ] -----------------|
 e------------------------3------------------------------|


 e-------------------------------------------------------|
 b-------------------------------------------------------|
 g-------------------------------------------------------|
 d----10--10--10s9----10--10--10s5-----------------------|
 a-------------------------------------------------------|
 e-------------------------------------------------------|

 e-------------------------------------------------------|
 b--------------------9-9s8-8-----------------8-8s7-7----|
 g--------------------8-8s7-7-----------------7-7s5-5----|
 d----10--10--10s9--------------10--10--10s5-------------|
 a-------------------------------------------------------|
 e-------------------------------------------------------|

 e-------------------------------------------------------|
 b-------------------------------------------------------|
 g-------------------------------------------------------|
 d-------------------------------------------------------|
 a-------------------------------------------------------|
 e----3-3-3-3-3-3-3-3----0-0-0-0-0-0-0-0----- [ 3x ] ----|
[ Tab from: http://www.guitartabs.cc/tabs/b/breeders/opened_tab_ver_2.html ]
walking on these highways
we leave the land
and float inside the dark, black water
C#m  Ebm          G
     robin flies again
C#m  Ebm          G
     robin flies again
C#m Ebm G  - [4x]

 e------------------------------------------------------------------------------------------------------------------------------------------------------|
 b------------------------------------------------------------------------------------------------------------------------------------------------------|
 g------------------------------------------------------------------------------------------------------------------------------------------------------|
 d--------5---------8-----------------------------------------------------------------------------------------------------------------------------------|
 a----3-3---3---6-6---6--------- [ 2x ] -----------------   F7                     ? e------------------------3-------------------------------|

 e-------------------------------------------------------|
 b--------------------9-9s8-8-----------------8-8s7-7----|
 g--------------------8-8s7-7-----------------7-7s5-5----|
 d----10--10--10s9--------------10--10--10s5-------------|
 a-------------------------------------------------------|
 e-------------------------------------------------------|

 e-------------------------------------------------------|
 b-------------------------------------------------------|
 g-------------------------------------------------------|
 d-------------------------------------------------------|
 a-------------------------------------------------------|
 e----3-3-3-3-3-3-3-3----0-0-0-0-0-0-0-0----- [ 3x ] ----|

she flew low over the highways
and I saw the wind
blowing back her barbie doll hair
C#m  Ebm          G
     robin flies again
C#m  Ebm          G
     robin flies again
C#m Ebm G  - [4x]

 e-------------------------------------------------------|
 b-------------------------------------------------------|
 g-------------------------------------------------------|
 d--------5---------8------------------------------------|
 a----3-3---3---6-6---6--------- [ 2x ] -----------------|
 e------------------------3------------------------------|

 e-------------------------------------------------------|
 b--------------------9-9s8-8-----------------8-8s7-7----|
 g--------------------8-8s7-7-----------------7-7s5-5----|
 d----10--10--10s9--------------10--10--10s5-------------|
 a-------------------------------------------------------|
 e-------------------------------------------------------|

 e-------------------------------------------------------|
 b-------------------------------------------------------|
 g-------------------------------------------------------|
 d-------------------------------------------------------|
 a-------------------------------------------------------|
 e----3-3-3-3-3-3-3-3----0-0-0-0-0-0-0-0----- [ 3x ] ----|

and in a kitchen in kentucky
she thinks she's peter Pan
and in the bottom of a concrete basement
C#m  Ebm          G
     robin flies again
C#m  Ebm          G
     robin flies again
C#m Ebm G  - [4x]
Comments