Breeders - Opened Chords & Tabs

 

Opened Chords & Tabs

Breeders Chords & Tabs

Version: 2 Type: Bass Tab 0 ratings
1 star 2 stars 3 stars 4 stars 5 stars
comments

Opened Bass Tab

Song name: Opened 
Artists: The Breeders  
Disclaimer - Any similarities between this TAB and the 
TAB in the song book are purly coincidental.

TABed by: Seth Gilchrist (rtg@anvil.win-uk.net)

G|-------------------------------------------------------|
D|-----5-------8-----------------------------------------|
A|-3-3---5-6-6---6----------------------[x6]-------------|
E|-----------------3-3-3-3-3-3-3-3-----------------------|

G|-------------------------------------------------------|
D|-------------------------------------------------------|
A|--------------------------------------[x4]-------------|
E|-1-1-1-1-1-1-1-1-3-3-3-3-3-3-3-3-----------------------|

G|-------------------------------------------------------|
D|-----5-------8-----------------------------------------|
A|-3-3---5-6-6---6-10-10-10-10-10-10-10-10---[x5]--------|
E|-------------------------------------------------------|

G|-------------------------------------------------------|
D|------5-------8-------5-------8------------------------|
A|--3-3---5-6-6---8-3-3---5-6-6---6----------------------|
E|----------------------------------3-3-3-3-3-3-3-3------|

G|-------------------------------------------------------|
D|-----5-------8-----------------------------------------|
A|-3-3---5-6-6---6----------------------[x3]-------------|
E|-----------------3-3-3-3-3-3-3-3-----------------------|
[ Tab from: http://www.guitartabs.cc/tabs/b/breeders/opened_btab_ver_2.html ]
G|-------------------------------------------------------|
D|-------------------------------------------------------|
A|--------------------------------------[x3]-------------|
E|-1-1-1-1-1-1-1-1-3-3-3-3-3-3-3-3-----------------------|

G|-------------------------------------------------------|
D|-----5-------8-----------------------------------------|
A|-3-3---5-6-6---6-10-10-10-10-10-10-10-10---[x5]--------|
E|-------------------------------------------------------|

G|-------------------------------------------------------|
D|------5-------8-------5-------8------------------------|
A|--3-3---5-6-6---8-3-3---5-6-6---6----------------------|
E|----------------------------------3-3-3-3-3-3-3-3------|

G|-------------------------------------------------------|
D|-----5-------8-----------------------------------------|
A|-3-3---5-6-6---6----------------------[x3]-------------|
E|-----------------3-3-3-3-3-3-3-3-----------------------|

G|-------------------------------------------------------|
D|-------------------------------------------------------|
A|--------------------------------------[x3]-------------|
E|-1-1-1-1-1-1-1-1-3-3-3-3-3-3-3-3-----------------------|

G|-------------------------------------------------------|
D|-----5-------8-----------------------------------------|
A|-3-3---5-6-6---6-10-10-10-10-10-10-10-10---[x5]--------|
E|-------------------------------------------------------|

G|-------------------------------------------------------|
D|-----5-------8-----------------------------------------|
A|-3-3---5-6-6---6-10------------------------------------|
E|-------------------------------------------------------|


Comments