Breeders - Lord Of The Thighs Chords & Tabs

 

Lord Of The Thighs Chords & Tabs

Breeders Chords & Tabs

Version: 1 Type: Chords 0 ratings
1 star 2 stars 3 stars 4 stars 5 stars
comments

Lord Of The Thighs Chords

   
##################################################################################
# This file is the author's own work and represents their interpretation of the  #
# song. You may only use this file for private study, scholarship, or research.  #
##################################################################################

Date: Fri, 3 Jan 1997 00:07:27 -0800
From: Larry Secrest 
Subject: TAB: Lord of the Thighs by the Breeders

    (Keep in mind I'm new at this :)

       C5
[ Tab from: http://www.guitartabs.cc/tabs/b/breeders/lord_of_the_thighs_crd.html ]
    e   -----------------------------------
    B   ---------------------------6-6-6-6... 
    G   --8--6---------------8--6----------
    D   --------8-8-8-8...-----------------
    A   -----------------------------------
    E   -----------------------------------


Bass:
      E  -6-6-6-6-8-6-8-6-8-6-8-
          A#      C
          C       A#
    (Lather, rinse, repeat. End on C.)
 
       Riff 1:          Riff 2:
    e   --------------   --------------
    B   --------------   ----------6---
    G   --8--6-6------   -8-8--6-6-----
    D   ---------8----   --------------
    A   --------------   -------------- 
    E   --------------   --------------

        CHORDS:
      C5    C   A#  G#   G   F
    e|----|-8--|-6-|-4-|-3-|-1-|
    G|----|-8--|-6-|-4-|-3-|-1-|
    B|----|-9--|-7-|-5-|-4-|-2-|
    D|-10-|-10-|-8-|-6-|-5-|-3-|
    A|-10-|-10-|-8-|-6-|-5-|-3-|
    E|-8--|-8--|-6-|-4-|-3-|-1-|


Comments