Breed 77 - The River Chords & Tabs

 

The River Chords & Tabs

Breed 77 Chords & Tabs

Version: 2 Type: Tab 0 ratings
1 star 2 stars 3 stars 4 stars 5 stars
comments

The River Tab

   
the river by breed 77
tabbed by dean paul
email invisable_wounds@hotmail.com
i would say that this tab is 99% accurate
E
B
G
D
A
D
INTRO
|GUITAR 1
|------------------------------------5-5p4-4-5-7-8--|
|-1p0-0-0h1---0ph1p0-1--------3/5---6---------------|
|----------0--------0--7--4h5-----------------------|
|------2-----2--------------------------------------|
|-0-------------------------------------------------|
|----------------------5-5---5----3--------------2--|
|
|GUITAR 2
|----------------------------------------------------------------|
|----------------------------------0-1---------------------3-----|
|-2-----2-0---------------4h5p4---2----------------1h2p1----2-1--|
|-2----------------------5------------------------2------2-------|
|-0------------0-------------------------------------------------|
|----------------------5-5-------3---------------2---------------|

VERSE
GUITAR 1
------------------------------------------------0-----|
----0h1--0h1-----0h1----0h1p0--1-3p1p0-1-------0------|
-------2------------0-----------------------1h2--2p1--|
---2--------2---0------0-------------------2----------|
-0------0---------------------------------------------|
--------------5------5--------3-----------2-----------|

VERSE (BOTH GUITARS)
|GUITAR 1
|------------------------------------------------0-----|
|----0h1--0h1-----0h1----0h1p0--1-3p1p0-1-------0------|
|-------2------------0-----------------------1h2--2p1--|
|---2--------2---0------0-------------------2----------|
|-0------0---------------------------------------------|
|--------------5------5--------3-----------2-----------|
|
|GUITAR 2
|--------------------------------0--3-1----|
|---------------------------------1--------|
|----7h9-----7h9------7h9-7----------------|
|------------------------------------------|
|-0-7---0-0-7----0----7--------------------|
|-----------------5-5---------3-3----3--2--|
[ Tab from: http://www.guitartabs.cc/tabs/b/breed_77/the_river_tab_ver_2.html ]
CHORUS
|GUITAR 1
|----------------------------------------------------|
|----------------------------------------------------|
|----------------------------------------------------|
|--2--2v-----2--2v-----------------------------------|
|-0--0--------------2-2-2-2-2-2-2-2-2-2-2-2-2-2-2-2--|
|-----------3--3----2-2-2-2-2-2-2-2-2-2-2-2-2-2-2-2--|
|
|GUITAR 2
|-0---------1--------0--|
|-1---------1--------0--|
|-2---------2--------1--| (listen for the strumming pattern)
|-2---------3--------2--|
|-0---------3--------2--|
|-----------3--------2--|

BRIDGE (1)
|GUITAR 1
|-------------------------------------------|
|-------------------------------------------|
|-------------------------------------------|
|-0----3----7----3----7----3----0----3------|
|-0----3----7----3----7----3----0----3------|
|-0----3----7----3----7----3----0----3------|
|
|GUITAR 2
|-------------------------------------------|
|-------------------------------------------|
|-------------------------------------------|
|-------------------------------------------|
|---/7v--/7v\---7-8-------7-8----------/7v\-|
|-------------------------------------------|

BRIDGE (2)
GUITAR 1
|---------------------------------|
|---------------------------------|
|---------------------------------|
|-0----3----7----3----7----3------|
|-0----3----7----3----7----3------|
|-0----3----7----3----7----3------|
|
|GUITAR 2
|---------------------------------|
|---------------------------------|
|---------------------------------|
|---------------------------------|
|---/7v--/7v\---7-8-------7-8-----|
|---------------------------------|

INTERLUDE (ALBUM VERSION ONLY)
|GUITAR 1
|-----5-8-7--7-5-4---------------------------------|
|-3/5------------------------3-3-------------------|
|----------------------------2-2-------------------|
|--------------------------0-----------------------|
|---------7----------------------------------------|
|-------------------3-2-0--------------------------|
|
|GUITAR 2
|---------------------------------------------------|
|-----------------------------3--3--3---0-3-0-------|
|----------------------------2-2--2----1------1-----|
|---------------------------0---0--0------------2---|
|---------------------------------------------------|
|-------------------3-2-0---0----------2------------|

SONG STRUCTURE:
INTRO (BOTH GUITARS) x1
VERSE (GUITAR 1) X1
VERSE (BOTH GUITARS) X1
CHORUS (BOTH GUITARS) X2
BRIDGE (1)(BOTH GUITARS) X1
VERSE (GUITAR 1) X1
VERSE (BOTH GUITARS) X1
CHORUS (BOTH GUITARS) X2
BRIDGE (2)(BOTH GUITARS) X2
INTERLUDE (BOTH GUITARS) X1
CHORUS (BOTH GUITARS) X2
BRIDGE (2)(BOTH GUITARS) X8 (FADING OUT)
Comments