Breed 77 - A Safe Place Chords & Tabs

 

A Safe Place Chords & Tabs

Breed 77 Chords & Tabs

Version: 1 Type: Tab 0 ratings
1 star 2 stars 3 stars 4 stars 5 stars
comments

A Safe Place Tab

   
-----------------------------------------------------------------------------
			     Breed 77 - A Safe Place
-----------------------------------------------------------------------------
Tabbed by:Huw Bristowe
Email:phoenix_773@hotmail.com

Tuning:EADGBe

e|3~~-----------------------------------------------------------------------|
B|--------------------------------------------------------------------------|
G|--------------------------------------------------------------------------|
D|--------------------------------------------------------------------------|
A|---12-9-9-10--12-9-9-10-----------------12-9-9-10--12-9-9-10--------------|
E|---10-7-7-8---10-7-7-8---7-8-7-10-7-8---10-7-7-8---10-7-7-8---7-8-7-10-7-8|

e|-----------------------------------------------------------------------|
B|-----------------------------------------------------------------------|
G|-----------------------------------------------------------------------|
D|-----------------------------------------------------------------------|
A|12-9-9-10--12-9-9-10-----------------12-9-9-10--12-9-9-10--------------|
E|10-7-7-8---10-7-7-8---7-8-7-10-7-8---10-7-7-8---10-7-7-8---7-8-7-10-7-8|
                                                           
                                    *bend + temolo (gtrII second time only)
e|------------------------------------------(gtrII)-2-2-4-4b-7-7-7-9-9bt*-|
B|------------------------------------------------------------------------|
G|------------------------------------------------------------------------|
D|2-2-2-2-2-2-2-5---2-2-2-2-2-2-2-5---2-2-2-2-2-2-2-5---2-2-2-2-2-2-2-5---|X2
A|2-2-2-2-2-2-2-5---2-2-2-2-2-2-2-5---2-2-2-2-2-2-2-5---2-2-2-2-2-2-2-5---|
E|0-0-0-0-0-0-0-3---0-0-0-0-0-0-0-3---0-0-0-0-0-0-0-3---0-0-0-0-0-0-0-3---|

e|----------------------------------------(gtrII)-7-7-7-9-10b(11)-----|
B|--------------------------------------------------------------------|
G|--------------------------------------------------------------------|
D|6-6-6--6-6-6--6-6-6-6-5-5-5--5-5-5--5-5-5-5-----------------3-5-4---|
A|4-4-4--4-4-4--4-4-4-4-3-3-3--3-3-3--3-3-3-3-0-3-7-4-3-3-3---1-3-2---|
E|--------------------------------------------------------------------|

e|---------(gtrII)-3-5-7-7-9-11-13-15-18-18~--------------------------|
B|--------------------------------------------------------------------|
G|--------------------------------------------------------------------|
D|6-6-6--6-6-6--6-6-6-6-5-5-5--5-5-5--5-5-5-5-----------------3-5-4---|
A|4-4-4--4-4-4--4-4-4-4-3-3-3--3-3-3--3-3-3-3-0-3-7-4-3-3-3---1-3-2---|
E|--------------------------------------------------------------------|

e|-------------|
B|-------------|
G|-------------|
D|-------------|
A|-------------|
E|1-2-1-3-2-1-2|

e|--------------------------------------------|
B|--------------------------------------------|
G|--------------------------------------------|
D|--------------------------------------------| X2
A|4---6---10-10-10-10---4---6---10-10-10-10---|
E|2---4---8--8--8--8----2---4---8--8--8--8----|

e|----------------------------------------------------------------|
B|----------------------------------------------------------------|
G|7-7-7-7-7-7-7-7-7-7-7-7-7-7-7-7-7-7-7-7-7-7-7-7-7-7-7-7-7-7-7-7-|
D|----------------------------------------------------------------|
A|----------------------------------------------------------------|
E|----------------------------------------------------------------|
[ Tab from: http://www.guitartabs.cc/tabs/b/breed_77/a_safe_place_tab.html ]
                                    *bend + temolo (gtrII second time only)
e|------------------------------------------(gtrII)-2-2-4-4b-7-7-7-9-9bt*-|
B|------------------------------------------------------------------------|
G|------------------------------------------------------------------------|
D|2-2-2-2-2-2-2-5---2-2-2-2-2-2-2-5---2-2-2-2-2-2-2-5---2-2-2-2-2-2-2-5---|X2
A|2-2-2-2-2-2-2-5---2-2-2-2-2-2-2-5---2-2-2-2-2-2-2-5---2-2-2-2-2-2-2-5---|
E|0-0-0-0-0-0-0-3---0-0-0-0-0-0-0-3---0-0-0-0-0-0-0-3---0-0-0-0-0-0-0-3---|

e|----------------------------------------(gtrII)-7-7-7-9-10b(11)-----|
B|--------------------------------------------------------------------|
G|--------------------------------------------------------------------|
D|6-6-6--6-6-6--6-6-6-6-5-5-5--5-5-5--5-5-5-5-----------------3-5-4---|
A|4-4-4--4-4-4--4-4-4-4-3-3-3--3-3-3--3-3-3-3-0-3-7-4-3-3-3---1-3-2---|
E|--------------------------------------------------------------------|

e|---------(gtrII)-3-5-7-7-9-11-13-15-18-18~--------------------------|
B|--------------------------------------------------------------------|
G|--------------------------------------------------------------------|
D|6-6-6--6-6-6--6-6-6-6-5-5-5--5-5-5--5-5-5-5-----------------3-5-4---|
A|4-4-4--4-4-4--4-4-4-4-3-3-3--3-3-3--3-3-3-3-0-3-7-4-3-3-3---1-3-2---|
E|--------------------------------------------------------------------|

e|--------------------------------------------|
B|--------------------------------------------|
G|--------------------------------------------|
D|--------------------------------------------| X2
A|4---6---10-10-10-10---4---6---10-10-10-10---|
E|2---4---8--8--8--8----2---4---8--8--8--8----|
        
                     *last time only
e|------------------------5~*------|
B|------0--------------------------|
G|4--4-4---7--7-7---6--6-6---------|
D|4--4-4---7--7-7---6--6-6---------| X3
A|---------------------------------|
E|---------------------------------|

   *solo
e|-*7p4--6-6-6-6-6--6-5--3-3-3-3-2-2-2--9-9-9-9-9-9-5-5-5-|
B|--------------------------------------------------------|
G|--------------------------------------------------------|
D|--------------------------------------------------------|
A|7-7-5--7-7-6--7-7-5--7-7-6--7-7-5--7-7-6--7-7-5--7-7-6--|
E|5-5-3--5-5-4--5-5-3--5-5-4--5-5-3--5-5-4--5-5-3--5-5-4--|

e|7/11\7-7-7-6-6-6-6-7---7/11\7-7-7-6-6-6-6-4---7/11\7-7-7-6-6-6-6-15/17~~|
B|------------------------------------------------------------------------|
G|------------------------------------------------------------------------|
D|------------------------------------------------------------------------|
A|7-7-5--7-7-6--7-7-5--7-7-6--7-7-5--7-7-6--7-7-5--7-7-6--7-7-5--7-7-6----|
E|5-5-3--5-5-4--5-5-3--5-5-4--5-5-3--5-5-4--5-5-3--5-5-4--5-5-3--5-5-4----|

e|----------------------------------------(gtrII)-7-7-7-9-10b(11)-----|
B|--------------------------------------------------------------------|
G|--------------------------------------------------------------------|
D|6-6-6--6-6-6--6-6-6-6-5-5-5--5-5-5--5-5-5-5-----------------3-5-4---|
A|4-4-4--4-4-4--4-4-4-4-3-3-3--3-3-3--3-3-3-3-0-3-7-4-3-3-3---1-3-2---|
E|--------------------------------------------------------------------|

e|---------(gtrII)-3-5-7-7-9-11-13-15-18-18~--------------------------|
B|--------------------------------------------------------------------|
G|--------------------------------------------------------------------|
D|6-6-6--6-6-6--6-6-6-6-5-5-5--5-5-5--5-5-5-5-----------------3-5-4---|
A|4-4-4--4-4-4--4-4-4-4-3-3-3--3-3-3--3-3-3-3-0-3-7-4-3-3-3---1-3-2---|
E|--------------------------------------------------------------------|

e|--------------------------------------------|
B|--------------------------------------------|
G|--------------------------------------------|
D|--------------------------------------------| X2
A|4---6---10-10-10-10---4---6---10-10-10-10---|
E|2---4---8--8--8--8----2---4---8--8--8--8----|             

   *if you have a peddle use the "wah" effect (gtrII)
e|4/5*-4/5*-4/5*-4/5*-4/5*-4/5*-4/5*-4/5*-4/5*-4/5*-4/5*-4/5*-4/5*--|
B|------------------------------------------------------------------|
G|------------------------------------------------------------------|
D|------------------------------------------------------------------|
A|4---6---10-10-10-10---4---6---10-10-10-10---4---6---10-10-10-10---|
E|2---4---8--8--8--8----2---4---8--8--8--8----2---4---8--8--8--8----|      

e|-------|
B|-------|
G|-------|
D|-------|
A|-------|
E|15\1p0X|
Comments