Breech Birth - Dant Dant Dant Doo Doo Chords & Tabs

 

Dant Dant Dant Doo Doo Chords & Tabs

Breech Birth Chords & Tabs

Version: 1 Type: Bass Tab 0 ratings
1 star 2 stars 3 stars 4 stars 5 stars
comments

Dant Dant Dant Doo Doo Bass Tab

   
Date: Wed, 13 Dec 1995 01:04:05 -0500
From: splunket@vt.edu (Habib)
Subject: upload:Breech Birth: dant_dant_dant_doo_doo.btab


riff1

|-----------------------------------------
|-----------------------------------------
|-------5----7-7-7-----------------------
|-0-0-0---5--------6-6-6-6---------------

riff2

|-----------------------------------------
|-----------------------------------------
|-5---5/7-7-7-7--------------------------
|---5------------6-6-6-6-----------------

riff3

|-----------------------------------------
|-----------------------------------------
|-----------------------------------------
|-2-2-0-1-0-1-0-1-2-3-2-1-0-------------
[ Tab from: http://www.guitartabs.cc/tabs/b/breech_birth/dant_dant_dant_doo_doo_btab.html ]
progression:
riff1 x 4 with drums/no guitar
riff1 x 8 with new drum pattern/clean emo style guitar
riff2 x 8 double time of first/heavy dist. guitar/vocals
riff3 x 4 with arrepegated f# tritone
riff3 x 4 with noisey f# chord

010203040506070809010203040506070809010203040506070809%%%%%%%%%%%%%%%%%%%%%%%%
##############################################################################
H   H      A     BBBB    I  BBBB  this has no meaning, if it does I don't know
H   H     A A    B   B   I  B   B        SPLUNKET@VT.EDU
HHHHH    A   A   BBBBB   I  BBBBB
H   H   AAAAAAA  B    B  I  B    B      S = (H + i)/t
H   H   A     A  BBBBB   I  BBBBBlahblahblahblahblahblahblahblahblahblahblahbl
-=-=-=-=-=-=-=-=-=-=-=-=-=-=-=-=-=-=-=-=-=-=-=-=-=-=-=-=-=-=-=-=-=-=-=-=-=-=-=
HABIBHABIBHABIBHABIBHABIBHABIBHABIBHABIBHABIBHABIBHABIBHABIBHABIBHABIBHABIBH
AB




Comments