Bree Sharp - The Cheap And Evil Girl Chords & Tabs

 

The Cheap And Evil Girl Chords & Tabs

Bree Sharp Chords & Tabs

Version: 1 Type: Chords 0 ratings
1 star 2 stars 3 stars 4 stars 5 stars
comments

The Cheap And Evil Girl Chords

The Cheap and Evil Girl - Bree Sharp
Transcribed by Diane E. (http://www.geocities.com/Area51/Atlantis/2766)

[use power chords]


Intro Riff:

E------------0-1------------1-0-----------------
B---------2--------------2----------------------
G------3--------------3-------------------------
D---3--------------3----------------------------
A-----------------------------------------------
E-----------------------------------------------


VERSE:             
A cheap and evil [Bb]girl sets out on the [C#]city                   
She's moistened every [Bb]curl, she's poisonously [F]pretty
And the [F#]unsuspecting fool falls prey      
As the [Eb]dim detective's led astray             
And the [F#]genuflecting boys all say    
"The [G#]cheap and evil girl will get her [F]way"

CHORUS:                                 
The cheap and evil [Bb]girl [C#] [F]                               
The cheap and evil [Bb]girl [C#] [F]                   
The cheap and evil [Bb]girl [C#] [Eb]   [F]
[ Tab from: http://www.guitartabs.cc/tabs/b/bree_sharp/the_cheap_and_evil_girl_crd.html ]
VERSE:
The cheap and evil girl dances if you're worthy
She teases every twirl, she's deviously dirty, yeah
And you fantasize about the ample 
Milky thighs you'd like to sample
Vocalize to her example
Deep, illegal sighs - Oh! It's a scandal

CHORUS

BRIDGE: 
[C#]Into the [C]club for a [B]rub in the [Bb]sauna
[C#]Stream through the [C]steam, there's a [B]shot, you're a [Bb]goner
[C#]Cry as you [C]die cause you [Bb]know you still [Bb]want her

E------------0-1----------------2-1----------
B---------2----------------------------------
G------3------------------3--2---------------
D---3------------------3---------------------
A--------------------------------------------
E--------------------------------------------
She can hypnotize      With her evil eyes

VERSE:
The cheap and evil girl wears you like a locket
She polished every pearl then she put you in her pocket, yeah
And the undertaker hears the sounds of the dumb gumshoe making his rounds
Shaking all the wrong ones down 
Cause the cheap and evil girl will not be found

CHORUS REPEATS TO END
Comments