Breathe - When The Sun Comes Chords & Tabs

 

When The Sun Comes Chords & Tabs

Breathe Chords & Tabs

Version: 1 Type: Bass Tab 0 ratings
1 star 2 stars 3 stars 4 stars 5 stars
comments

When The Sun Comes Bass Tab

Artist : Breathe
Song : When The Sun Comes
Tabbed By : Paul Comrie-Thomson (pcomriet@hotmail.com)

Normal Tuning
/ means slide up

The rhythm might be off at some points

0:45
G|----567--------------------2-----|
D|-------023--2--0--0-1-3--2---5-1-|
A|-345-----------------------------|
E|---------------------------------|

G|-22-------------------|
D|----2--22-5-4-3--32---|
A|-------------------53-| (twice)
E|----------------------|

G|-----------------------------------------------2-0-1--2---2----------------1-1-1-
D|-0-1-3--2--0--0-1-3--2--0-0-1-3--2--0--0-1-3-2-------------5----53----34--4------
A|---------------------------------------------------------------------------------
E|---------------------------------------------------------------------------------
[ Tab from: http://www.guitartabs.cc/tabs/b/breathe/when_the_sun_comes_btab.html ]
G|-1-2-4--4------------------------------------------------------------------------
D|----------22-023--33--3-4-20-0--5-5-55/5-33-2-0-2-2-3-3-333-4-4-2-0--0-5-5-55/-5-
A|---------------------------------------------------------------------------------
E|---------------------------------------------------------------------------------

G|--------------------------------------------------------------2------------4-4-
D|-33-2-0-0-00---0-1-3--2--0--0-1-3-2-0------1-3--2--0--0-1-3-2---5-3-2--2-3-----
A|---------------------------------------345-------------------------------------
E|-------------------------------------------------------------------------------

G|-------------------------------------------------------------------------------
D|-2-2-2-2-2-2--3-3-33-3-4-4-2-1-1-5-5-55/5-33-2-11-2-3-3-33-2-4-4-2-0-05-5-55/5-
A|-------------------------------------------------------------------------------
E|-------------------------------------------------------------------------------

G|---------------------------------------|
D|-33-2-0-0-5-5-55/5-33-2-0-0--5---5-----|
A|------------------------------------3--|
E|---------------------------------------|

If you want me to tab anything, just e-mail me your requests.

Comments