Breathe - How Can I Fall Chords & Tabs

 

How Can I Fall Chords & Tabs

Breathe Chords & Tabs

Version: 1 Type: Tab 0 ratings
1 star 2 stars 3 stars 4 stars 5 stars
comments

How Can I Fall Tab

   
How can I fall?
   (breathe)

Intro: AE---DC#m7---D9D
A                                      F#m
Give me time to care the moment sees for us to share
E                                                 D      C#m          D9--D
To my heart is not always there what more can I say to you
A                                 F#m
Could I lie to you I'm just too weak to face the truth
E                                                          D      C#m          D
Now I know I should make the move what more can I say?

Chorus:
A                      A
How can I fall, how can I fall
                  D                                C#m
When you just won't give me reason
                  D                                C#m
When you just won't give me reason
    Bm     D-C#m-Bm  A
I don't

(Do stanza chords)
When I face this gun I fight myself to carry on
Yes I know of the harm I do what more can I say to you
Now I hold this line I know the choice to live this mine
I can help what I feel inside what more can I say

Chorus:
A                      A
How can I fall, how can I fall
                  D                                C#m
When you just won't give me reason
                  D                                C#m
When you just won't give me reason
    Bm    D-C#m-Bm    E-F#m
I don't

Bridge:
A            F#m                  C#m  D
I follow through I'll see I do
                C#m                   Bm
When its time is found no right for you
A                    F#m                    C#m  D
I'll make that move and when I do
                  C#m                   Bm
And will I down to give the way I do

(Repeat chorus)

[ Tab from: http://www.guitartabs.cc/tabs/b/breathe/how_can_i_fall_tab.html ]
Adlib:  A---F#mE---DC#mD9--D
                ~    pm-----                               h               ~
E---------------------5--7--4-5-4---------|-----------------------------------|
B-----------5--77/9---------------7--7---|-----------------------------------|
G--2---2----------------------------------|---9119---9\-----4/9-------------|
D-----------------------------------------|---9--------9\-----4/9-------------|
A-----------------------------------------|--11--------7\-----2/7-------------|
E-----------------------------------------|---0--------0----------------------|


ah -----
E--------9-10---------------b----|--------h-----------------------------------|
B-----10------1212/14--12--12---|---5--2-3-2--3-2----------h-----------------|
G--11----------------------------|-----------------2-44-24-----------------|
D--------------------------------|-----------------------------4/-------------|
A--------------------------------|--------------------------------------------|
E--------------------------------|--------------------------------------------|


E-----------------10-9-------12--|--------------------------------------------|
B-----h---10--12--------10------|--------------------------------------------|
G-9--11-----------------9-------|--------------------------------------------|
D--------------------------------|--------------------------------------------|
A--------------------------------|--------------------------------------------|
E--------------------------------|--------------------------------------------|

Last chorus:
A                      A
How can I fall, how can I fall
                  D                                C#m
When you just won't give me reason
                  D                                 C#m
When you just won't give me reason

A                      A
How can I fall, how can I fall
                  D                                C#m
When you just won't give me reason
                  D                                 C#m
When you just won't give me reason
A
 Just won't give me reason
F#m                                      E
Just won't give me reason I don't
                  D                C#m
How can I fall, I fall, I fall
                  Bm
How can I fall for you?

A                      A
How can I fall, how can I fall
                  D                                C#m
When you just won't give me reason
                  D                                 C#m          A
When you just won't give me reason
Comments