Breathe - Dont Stop The Revolution Chords & Tabs

 

Dont Stop The Revolution Chords & Tabs

Breathe Chords & Tabs

Version: 1 Type: Bass Tab 0 ratings
1 star 2 stars 3 stars 4 stars 5 stars
comments

Dont Stop The Revolution Bass Tab

Band : Breathe
Song : Don't Stop The Revolution
Tabbed By : Paul Comrie-Thomson
E-Mail : pcomriet@hotmail.com

> means play lots

Verse 1 -
G|-----------------|
D|-----------------|
A|-----------------|
E|-2/6>>--7>>--4>>-|

Chorus-
G|---------------------|
D|---------------------|
A|---------6-7---6-7-6-|
E|-2>>--7>-----7-------|

Verse 2-
G|------------------------------------|
D|------------------------------------|
A|------------------------1-2---1-2---|
E|-2-------6>>--7>>--4>>------4-----4-|
[ Tab from: http://www.guitartabs.cc/tabs/b/breathe/dont_stop_the_revolution_btab.html ]
Bridge-
G|-----------------------------------|-----------------------|
D|-----------------------------------|-----------------------|
A|-7>--6>--4>--2>--2-1-2-------------|-7>--6>--4>--2>--2-1-2-|
E|-----------------------2>--3-2-3-2-|-----------------------|

Ending-
G|---------------|
D|---------------|
A|---------------|
E|-2>>--2>>--7>>-|

Order-
Verse 1
Chorus
Verse 2
Chorus
Bridge
Chorus 
Ending

************************************************************************************
This is mint.  Any corrections / comments, e-mail me.
Have Fun!!!

Comments