Breaking The Silence - Smack Chords & Tabs

 

Smack Chords & Tabs

Breaking The Silence Chords & Tabs

Version: 1 Type: Tab 0 ratings
1 star 2 stars 3 stars 4 stars 5 stars
comments

Smack Tab

   
Verse
e7-7-7-7-9-9-9-9-9-9-9-9-9-8-7-^6
b7-7-7-7-9-9-9-9-9-9-9-9---------
g8-8-8-8---------9-9-9-9---------       Repeat 3x
d--------------------------------
a--------------------------------
E-------------------------------- 
Chorus
e77777777-5-7/8-9-77777777-5-4-2/7
b77777777-7-------77777777--------
g88888888-7-------77777777--------      Repeat 2x
d---------------------------------
a---------------------------------
E---------------------------------
Outro
e3-4-6-7-8^9-5-5~~~~~
b------7----5--5~~~~~
g------7----5--6~~~~~      Play 1x
d--------------------
a--------------------
E--------------------

Order

Verse
chorus
verse
improvise
verse
chorus
Outro
[ Tab from: http://www.guitartabs.cc/tabs/b/breaking_the_silence/smack_tab.html ]
Comments