Breaking Spree - Suite Sicksteen Chords & Tabs

 

Suite Sicksteen Chords & Tabs

Breaking Spree Chords & Tabs

Version: 1 Type: Bass Tab 0 ratings
1 star 2 stars 3 stars 4 stars 5 stars
comments

Suite Sicksteen Bass Tab

Breaking Spree
SUITE SICKSTEEN

50's Music Part:
G:------------------------------------------------
D:------------------------------------------------
A:------------7-7-7-7-7-7-3-3-3-3-3-2-5-5-5-5-5-5-
E:3-3-3-3-3-3-------------------------------------
[ Tab from: http://www.guitartabs.cc/tabs/b/breaking_spree/suite_sicksteen_btab.html ]
Punk Part:
G:---------------------------------------------------------
D:---------------------------------------------------------
A:-----------------------------3-3-3-3-3-3-3-5-5-5-5-5-5-5-
E:3-3-3-3-3-3-3-0-0-0-0-0-0-0------------------------------

Comments, trash talking: skinnersmom@yahoo.com

Comments