Breaking Spree - Bruiser Chords & Tabs

 

Bruiser Chords & Tabs

Breaking Spree Chords & Tabs

Version: 2 Type: Bass Tab 0 ratings
1 star 2 stars 3 stars 4 stars 5 stars
comments

Bruiser Bass Tab

Breaking Spree
BRUISER

Intro, and half the song:
G:------------------------------------------------
D:-------------2-------4-----2-3-5-5------------
A:----2----3-3---3--5-5--5-3----------------------
E:3-3---3-----------------------------------------
[ Tab from: http://www.guitartabs.cc/tabs/b/breaking_spree/bruiser_btab_ver_2.html ]
Other half:
G:------------------------------------------------
D:------------------------------------------------
A:-------3-3-3-3-5-5-5-5-3-3-3-3------------------
E:3-3-3-3-----------------------------------------

Work it out yourself.  Comments: skinnersmom@yahoo.com
Comments