Breaking Point - Phoenix Chords & Tabs

 

Phoenix Chords & Tabs

Breaking Point Chords & Tabs

Version: 1 Type: Tab 0 ratings
1 star 2 stars 3 stars 4 stars 5 stars
comments

Phoenix Tab

#----------------------------------PLEASE NOTE---------------------------------#
#This file is the author's own work and represents their interpretation of the #
#song. You may only use this file for private study, scholarship, or research. #
#------------------------------------------------------------------------------##

Artist: Breaking Point
Song: Phoenix
Album: Coming of Age
Tabbed by David Mety (guitarbuster2k)

Intro/verse
|---------------------------------|----------------------------------|
|---------------------------------|----------------------------------|
|---------------------------------|----------------------------------|
|-----4-----4-----4-----4---------|-----4-----4-----4-----4----------|
|---4---2-4---0-4---0-4---2-4-----|---4---2-4---0-4---0-4---2-4------|
|-2---------------------------2-3-|-2---------------------------2-3--|


|---------------------------------|----------------------------------|
|---------------------------------|----------------------------------|
|---------------------------------|----------------------------------|
|-----4-----4-----4-----4---------|-----4-----4-----4-----4----------|
|---4---2-4---0-4---0-4---2-4-----|---4---2-4---0-4---0-4---2-4------|
|-2---------------------------2-3-|-2---------------------------2-3--|


|---------------------------------|----------------------------------|
|---------------------------------|----------------------------------|
|---------------------------------|----------------------------------|
|-----4-----4-----4-----4---------|-----4-----4-----4-----4----------|
|---4---2-4---0-4---0-4---2-4-----|---4---2-4---0-4---0-4---2-4------|
|-2---------------------------2-3-|-2---------------------------2-3--|


|---------------------------------|----------------------------------|
|---------------------------------|----------------------------------|
|---------------------------------|----------------------------------|
|-----4-----4-----4-----4---------|-----4-----4-----4-----4----------|
|---4---2-4---0-4---0-4---2-4-----|---4---2-4---0-4---0-4---2-4------|
|-2---------------------------2-3-|-2---------------------------2-3--|


|---------------------------------|----------------------------------|
|---------------------------------|----------------------------------|
|---------------------------------|----------------------------------|
|-----4-----4-----4-----4---------|-----4-----4-----4-----4----------|
|---4---2-4---0-4---0-4---2-4-----|---4---2-4---0-4---0-4---2-4------|
|-2---------------------------2-3-|-2---------------------------2-3--|


|---------------------------------|----------------------------------|
|---------------------------------|----------------------------------|
|---------------------------------|----------------------------------|
|-----4-----4-----4-----4---------|-----4-----4-----4-----4----------|
|---4---2-4---0-4---0-4---2-4-----|---4---2-4---0-4---0-4---2-4------|
|-2---------------------------2-3-|-2---------------------------2-3--|


|---------------------|-----------------------------------|--|
|---------------------|-----------------------------------|--|
|---------------------|-----------------------------------|--|
|-4-4-4-4-4-4-4-4-4-4-|-4-4-4-4-7-7-7-7-7-7-2-2-2-2-2-2-4-|--|
|-4-4-4-4-4-4-4-4-4-4-|-4-4-4-4-7-7-7-7-7-7-2-2-2-2-2-2-4-|--|
|-2-2-2-2-2-2-2-2-2-2-|-2-2-2-2-5-5-5-5-5-5-0-0-0-0-0-0-2-|--|


    PM--------|
|-----------------|---------------------------------|--|
|-----------------|---------------------------------|--|
|-----------------|---------------------------------|--|
|-4-4-4-4-4-4-4-4-|-----4-----4-----4-----4---------|--|
|-4-4-4-4-4-4-4-4-|---4---2-4---0-4---0-4---2-4-----|--|
|-2-2-2-2-2-2-2-2-|-2---------------------------2-3-|--|


|---------------------------------|----------------------------------|
|---------------------------------|----------------------------------|
|---------------------------------|----------------------------------|
|-----4-----4-----4-----4---------|-----4-----4-----4-----4----------|
|---4---2-4---0-4---0-4---2-4-----|---4---2-4---0-4---0-4---2-4------|
|-2---------------------------2-3-|-2---------------------------2-3--|


|---------------------------------|----------------------------------|
|---------------------------------|----------------------------------|
|---------------------------------|----------------------------------|
|-----4-----4-----4-----4---------|-----4-----4-----4-----4----------|
|---4---2-4---0-4---0-4---2-4-----|---4---2-4---0-4---0-4---2-4------|
|-2---------------------------2-3-|-2---------------------------2-3--|


|---------------------------------|----------------------------------|
|---------------------------------|----------------------------------|
|---------------------------------|----------------------------------|
|-----4-----4-----4-----4---------|-----4-----4-----4-----4----------|
|---4---2-4---0-4---0-4---2-4-----|---4---2-4---0-4---0-4---2-4------|
|-2---------------------------2-3-|-2---------------------------2-3--|


|---------------------------------|----------------------------------|
|---------------------------------|----------------------------------|
|---------------------------------|----------------------------------|
|-----4-----4-----4-----4---------|-----4-----4-----4-----4----------|
|---4---2-4---0-4---0-4---2-4-----|---4---2-4---0-4---0-4---2-4------|
|-2---------------------------2-3-|-2---------------------------2-3--|

[ Tab from: http://www.guitartabs.cc/tabs/b/breaking_point/phoenix_tab.html ]
|---------------------------------|----------------------------------|
|---------------------------------|----------------------------------|
|---------------------------------|----------------------------------|
|-----4-----4-----4-----4---------|-----4-----4-----4-----4----------|
|---4---2-4---0-4---0-4---2-4-----|---4---2-4---0-4---0-4---2-4------|
|-2---------------------------2-3-|-2---------------------------2-3--|


|---------------------------------|-----------------|-----------------|-----------------|--------|
|---------------------------------|-----------------|-----------------|-----------------|--------|
|---------------------------------|-----------------|-----------------|-----------------|--------|
|-----4-----4-----4-----4---------|-4-4-4-4-4-4-4-4-|-4-4-4-4-4-4-7-7-|-7-7-7-7-2-2-2-2-|-2-2-4--|
|---4---2-4---0-4---0-4---2-4-----|-4-4-4-4-4-4-4-4-|-4-4-4-4-4-4-7-7-|-7-7-7-7-2-2-2-2-|-2-2-4--|
|-2---------------------------2-3-|-2-2-2-2-2-2-2-2-|-2-2-2-2-2-2-5-5-|-5-5-5-5-0-0-0-0-|-0-0-2--|


    PM--------|
|-----------------|--|
|-----------------|--|
|-----------------|--|
|-4-4-4-4-4-4-4-4-|--|
|-4-4-4-4-4-4-4-4-|--|
|-2-2-2-2-2-2-2-2-|--|


The solo begins here, but I haven't figured it out yet.
At the second part of the solo (2:21), Guitar 1 plays the intro rhythm
while Guitar 2 continues the solo.

|---------------------------------|----------------------------------|
|---------------------------------|----------------------------------|
|---------------------------------|----------------------------------|
|-----4-----4-----4-----4---------|-----4-----4-----4-----4----------|
|---4---2-4---0-4---0-4---2-4-----|---4---2-4---0-4---0-4---2-4------|
|-2---------------------------2-3-|-2---------------------------2-3--|

|---------------------------------|----------------------------------|
|---------------------------------|----------------------------------|
|---------------------------------|----------------------------------|
|-----4-----4-----4-----4---------|-----4-----4-----4-----4----------|
|---4---2-4---0-4---0-4---2-4-----|---4---2-4---0-4---0-4---2-4------|
|-2---------------------------2-3-|-2---------------------------2-3--|

|---------------------------------|----------------------------------|
|---------------------------------|----------------------------------|
|---------------------------------|----------------------------------|
|-----4-----4-----4-----4---------|-----4-----4-----4-----4----------|
|---4---2-4---0-4---0-4---2-4-----|---4---2-4---0-4---0-4---2-4------|
|-2---------------------------2-3-|-2---------------------------2-3--|

|---------------------------------|----------------------------------|
|---------------------------------|----------------------------------|
|---------------------------------|----------------------------------|
|-----4-----4-----4-----4---------|-----4-----4-----4-----4----------|
|---4---2-4---0-4---0-4---2-4-----|---4---2-4---0-4---0-4---2-4------|
|-2---------------------------2-3-|-2---------------------------2-3--|

|---------------------------------|----------------------------------|
|---------------------------------|----------------------------------|
|---------------------------------|----------------------------------|
|-----4-----4-----4-----4---------|-----4-----4-----4-----4----------|
|---4---2-4---0-4---0-4---2-4-----|---4---2-4---0-4---0-4---2-4------|
|-2---------------------------2-3-|-2---------------------------2-3--|

|---------------------------------|----------------------------------|
|---------------------------------|----------------------------------|
|---------------------------------|----------------------------------|
|-----4-----4-----4-----4---------|-----4-----4-----4-----4----------|
|---4---2-4---0-4---0-4---2-4-----|---4---2-4---0-4---0-4---2-4------|
|-2---------------------------2-3-|-2---------------------------2-3--|

|---------------------------------|----------------------------------|
|---------------------------------|----------------------------------|
|---------------------------------|----------------------------------|
|-----4-----4-----4-----4---------|-----4-----4-----4-----4----------|
|---4---2-4---0-4---0-4---2-4-----|---4---2-4---0-4---0-4---2-4------|
|-2---------------------------2-3-|-2---------------------------2-3--|

|---------------------------------|----------------------------------|
|---------------------------------|----------------------------------|
|---------------------------------|----------------------------------|
|-----4-----4-----4-----4---------|-----4-----4-----4-----4----------|
|---4---2-4---0-4---0-4---2-4-----|---4---2-4---0-4---0-4---2-4------|
|-2---------------------------2-3-|-2---------------------------2-3--|

Then play the chorus chords again here, but instead this time at the end
of the song play this 3x:


    PM--------|
|-----------------|
|-----------------|
|-----------------|
|-4-4-4-4-4-4-4-4-|
|-4-4-4-4-4-4-4-4-|
|-2-2-2-2-2-2-2-2-|


and end holding this chord:

|---|
|---|
|---|
|-4-|
|-4-|
|-2-|

And thats it!
--------------------------------------------------------------------------------
Legend
------

 h  = hammer-on		 |  = bar
 p  = pull-off		||  = double bar
 b  = bend		||* = repeat start
 r  = bend release	*|| = repeat end
 /  = slide up/down	*|  = double bar (end)
[5] = nat. harmonic	 !  = repeat beat (ΒΌ,8th)
 = art. harmonic	!!  = repeat beat (16th)
 ~  = vibrato		 %  = repeat measure
 tr = trill		 :  = bar (freetime)
 T  = tap		du  = tremolo bar dip
 TP = trem. picking	 d  = tremolo bar down
 PM = palm muting	 u  = tremolo bar up
 S  = slap		ud  = tremolo bar inverted dip
 P  = pop		 =  = hold (bend or tremolo bar)
--------------------------------------------------------------------------------
Comments