Breaking Point - One Of A Kind Chords & Tabs

 

One Of A Kind Chords & Tabs

Breaking Point Chords & Tabs

Version: 1 Type: Tab 0 ratings
1 star 2 stars 3 stars 4 stars 5 stars
comments

One Of A Kind Tab

   
-------------------------------------------------------------------------------
			     One of a Kind - Breaking Point
-------------------------------------------------------------------------------
Breaking Point home page:http://www.breakingpointmusic.com/

Tabbed by:AerialToxicity
Email:tboysk8r@hotmail.com

Tuning:Drop D(Drop E string down 1/2 step)DADGBE

Opening on forceable entry:
   + + +   
e|--------|
B|--------|
G|--------| x3
D|--------|
A|-1-1-1--|
D|-1-1-1--|

Main Riff

e|-----------------------------
B|-----------------------------
G|-----------------------------
D|----------------------------- ? times
A|-0-0-0-3--0-0-3--0-0-3-2-2-0-
D|-0-0-0-3--0-0-3--0-0-3-2-2-0-

Cool thing played in the song

*note:You can play this on the A string too. Whatever sounds better to you.
[ Tab from: http://www.guitartabs.cc/tabs/b/breaking_point/one_of_a_kind_tab.html ]
e|----------------------|
B|----------------------|
G|----------------------|
D|----------------------|
A|----------------------|
D|0-0-0-3-6-6-5-3-2-2-0-|

Outro

   + + +  + + +
e|---------------------------------------------------------------------------|
B|---------------------------------------------------------------------------|
G|---------------------------------------------------------------------------|
D|---------------------------------------------------------------------------|
A|-1-1-1--1-1-1--0-1-0-1-0-0-0-----------------------------------------------|
D|-1-1-1--1-1-1--0-1-0-1-0-0-0-----------------------------------------------|


And thats all i know, so have fun

| /  slide up
| \  slide down
| h  hammer-on
| p  pull-off
| ~  vibrato
| +  harmonic(hold strings very lightly with neck hand)
| x  Mute note
===============================================================================
Comments