Breaking Point - Goodbye To You Chords & Tabs

 

Goodbye To You Chords & Tabs

Breaking Point Chords & Tabs

Version: 1 Type: Tab 0 ratings
1 star 2 stars 3 stars 4 stars 5 stars
comments

Goodbye To You Tab

   
This is an easy but beautiful ballad....enjoy it!!!

INTRO

guitar 1 (acoustic) (figure out the strum...or invent one!!)

   (D  G)   X2


guitar 2 (electric clean)

E--------------------------------------------------------------------------|
B--7--8-7--10--7--8--7--10--7--------7--8-7--10--7--8--7--5--3-------------|
G--------------------------------------------------------------------------|
D--------------------------------------------------------------------------|
A--------------------------------------------------------------------------|
E--------------------------------------------------------------------------|
         X3                    then

guitar 3 (electric w distortion and reverb) ( this piece comes the second time u do that
with clean guitar,listen to the song to understand)

E-----------------------------------------------------------------------|
B-----------------------------------------------------------------------|
G-2/7-6-7--/7-6-7-------------------------------------------------------|
D-----------------------------------------------------------------------|
A-----------------------------------------------------------------------|
E-----------------------------------------------------------------------|

VERSE 1

Guitar 1 (acoustic) this part troughout tehe verse (figure out the strum)

(D Bm D G)  X2

guitar 3 (electric w distortion and reverb) (listen to the song to understand where is
part...it's difficult to explain..)

E--------------------------|
B--------------------------|
G-2h4p2-0------------------|
D--------------------------|
A--------------------------|
E--------------------------|

PRE-CHORUS

Guitar 1 (acoustic)

(Bm D) X2

Guitar 2 ( elect guitar clean)

E----------------------------------------------------------|
B-5--3h7-8--5--8-5-3-0---5--3h7-8-let ring-----------------|
G----------------------------------------------------------|
D----------------------------------------------------------|
A----------------------------------------------------------|
E----------------------------------------------------------|
[ Tab from: http://www.guitartabs.cc/tabs/b/breaking_point/goodbye_to_you_tab.html ]
CHORUS

Guitar 1 (acoustic)

figure out the strum

E--------------------------|
B--------------------------|
G--7---6---4---------------|
D--7---6---4--5---7--------|
A--5---4---2--5---7--------|
E-------------3---5--------|

Guitar 3 (elect guitar w distortion)

E------------------------------------------------------|
B------------------------------------------------------|
G--7---6---4-------------------------------------------|
D--7---6---4--2-4---5---7------------------------------|
A--5---4---2--2-4---5---7------------------------------|
E-------------0-2---3---5------------------------------|


POST-CHORUS

repeat the intro with electric guitar clean and acoustic guitar


VERSE 2

acoustic guitar is the same

guitar 3 (electric guitar with distortion and reverb)

E-------------------------------------------------|
B-------------------------------------------------|
G-7/12---\11--9-7h9p7-6h7-------------------------|
D-------------------------------------------------|
A-------------------------------------------------|
E-------------------------------------------------|

BRIDGE

Guitar 1 (acoustic) and guitar 3 (electric w distortion)

E-----------------------------------------------|
B-----------------------------------------------|
G--4---7---9---7---4---7------------------------|
D--4---7---9---7---4---7---5---5---7------------|
A--2---5---7---5---2---5---5---5---7------------|
E--------------------------3---3---5------------|

CHORUS X4


at the end of the second time of chorus the clean guitar starts doing the intro riff
along with chorus....but with a difference at the end of that riff....here it is that
difference(hear to the song to notice when it changes)

E--------------------------------------------|
B-7--8-7--10--7--8-7--5--7--3----------------|
G--------------------------------------------|
D--------------------------------------------|
A--------------------------------------------|
E--------------------------------------------|

END

E---------------------|
B---------------------|
G--7------------------|
D--7--let-ring--------|
A--5------------------|
E---------------------|

I hope this works!!!!
Comments