Breaking Point - Falling Down Chords & Tabs

 

Falling Down Chords & Tabs

Breaking Point Chords & Tabs

Version: 3 Type: Tab 0 ratings
1 star 2 stars 3 stars 4 stars 5 stars
comments

Falling Down Tab

   
#----------------------------------PLEASE NOTE---------------------------------#
#This file is the author's own work and represents their interpretation of the #
#song. You may only use this file for private study, scholarship, or research. #
#------------------------------------------------------------------------------##

Title: Falling Down
Artist: Breaking Point
Tabbed By: David Mety (guitarbuster2k)

Tuning: Dropped D (D A D G B e)

0:00 Intro

|-----------------------------------------------------------|
|-----------------------------------------------------------|
|-----------------------------------------------------------|
|-5-5--5-5--5-5--8-8--8-8--8-8--1-1--1-1--1-1--2-2-3-3-5-5--|
|-5-5--5-5--5-5--8-8--8-8--8-8--1-1--1-1--1-1--0-0-1-1-3-3--|
|-5-5--5-5--5-5--8-8--8-8--8-8--1-1--1-1--1-1---------------|


|-------------------------------------------------------------|
|----8----8----8----11-----11----11---------------------------|
|--------------------------------------3---3---3---2---3---5--|
|-5----5----5----8------8------8-----1---1---1----------------|
|------------------------------------------------0---1---3----|
|-------------------------------------------------------------|

Pre-Chorus
  PM--|
|-----------------------------------|
|-----------------------------------|
|-----------------------------------|
|-0-0-0-----------------------------|
|-0-0-0--1-1-1-1---3-3-3-3---5-5-5--|
|-0-0-0--1-1-1-1\--3-3-3-3\--5-5-5--|

Chorus
|----------------|
|----------------|
|----------------|
|----7----7-7----|
|----------------|
|-5-----5-----5--|
[ Tab from: http://www.guitartabs.cc/tabs/b/breaking_point/falling_down_tab_ver_3.html ]
Played during solo
|-----------------------|
|-----------------------|
|-----------------------|
|-2-2-2-2-1-1-2-2-2--4--|
|-2-2-2-2-1-1-2-2-2--4--|
|-2-2-2-2-1-1-2-2-2\-4--|

Solo with Wah-wah
|------------------------------------------------------------------------|
|-8-8-8-8-8-8-8-8-8-8-6-6-6-6-6-6-6-6-6-9-9-9-9-9-9-9-9-9-9-8-8-8-8-8-8--|
|------------------------------------------------------------------------|
|------------------------------------------------------------------------|
|------------------------------------------------------------------------|
|------------------------------------------------------------------------|


|------------------------------------------|
|-8-8-6-6-6-6-6-6-6-6-6-11-11-11-11-11-11--|
|------------------------------------------|
|------------------------------------------|
|------------------------------------------|
|------------------------------------------|

End of song
|----------------|
|----------------|
|----------------|
|-2-2-2-2-1-2-2--|
|-2-2-2-2-1-2-2--|
|-2-2-2-2-1-2-2--|


--------------------------------------------------------------------------------
Legend
------

 h  = hammer-on		 |  = bar
 p  = pull-off		||  = double bar
 b  = bend		||* = repeat start
 r  = bend release	*|| = repeat end
 /  = slide up/down	*|  = double bar (end)
[5] = nat. harmonic	 !  = repeat beat (?,8th)
<5> = art. harmonic	!!  = repeat beat (16th)
 ~  = vibrato		 %  = repeat measure
 tr = trill		 :  = bar (freetime)
 T  = tap		du  = tremolo bar dip
 TP = trem. picking	 d  = tremolo bar down
 PM = palm muting	 u  = tremolo bar up
 S  = slap		ud  = tremolo bar inverted dip
 P  = pop		 =  = hold (bend or tremolo bar)
--------------------------------------------------------------------------------
Comments