Breaking Benjamin - You Chords & Tabs

 

Breaking Benjamin Chords & Tabs

Version: 3 Type: Tab 0 ratings
1 star 2 stars 3 stars 4 stars 5 stars
comments

You Tab

   
Breaking Benjamin - You
Phobia - Track #4

Guitar 1 - Aaron Fincke
Guitar 2 - Ben Burnley

Tuning: Standard

This has got to be 98%+ correct.  The 2nd guitar behind the post chorus
lead is tough to hear and probably should be turned down as to not
overpower the lead.

INTRO
Guitar 1 - Clean     4x
e|--------------------------------------------------|
B|--------------------------------------------------|
G|--11--11-----11--11-----11--11-----11--11---------|
D|-9---9---9--9---9---9--9---9---9--9---9---9-------|
A|7---7---7--7---7---7------------------------------|
E|----------------------8---8---8--8---8---8--------|

Guitar 1 - Clean     1x
e|----------------------------------------------|
B|----------------------------------------------|
G|--11--11-----11--11-----11--11----------------|
D|-9---9---9--9---9---9--9---9---9--------------|
A|7---7---7--7---7---7--------------------------|
E|----------------------8---8---8--8-8-8-8-8-8-8|

CHORUS
Both Guitars
e|----------------------------------------|
B|----------------------------------------|
G|------------------5-555-55--------------|
D|3-333-33-33-3333--5-555-55--5-5-x5------|
A|3-333-33-33-3333--3-333-33--5-5-x5------|
E|1-111-11-11-1111--3-333-33--3-3-x3------|

e|----------------------------------------|
B|----------------------------------------|
G|------------------5-555-55--------------|
D|3-333-33-33-3333--5-555-55--55-555------|
A|3-333-33-33-3333--3-333-33--55-555------|
E|1-111-11-11-1111--3-333-33--33-333------|

e|---------------------------------------3-|
B|---------------------------------------2-|
G|------------------5-555-55-------------3-|
D|3-333-33-33-3333--5-555-55--55-555--3--0-|
A|3-333-33-33-3333--3-333-33--55-555--3--0-|
E|1-111-11-11-1111--3-333-33--33-333--1----|

POST CHORUS
Guitar 1 - Phaser and Reverb
e|12121212------12121212----------------12121212-1414141414-10101010|
B|-------12121212------12121212-13131313----------------------------|
G|------------------------------------------------------------------|
D|------------------------------------------------------------------|
A|------------------------------------------------------------------|
E|------------------------------------------------------------------|

e|12121212------12121212----------------12121212-1414141414-10101010|
B|-------12121212------13131313-12121212----------------------------|
G|------------------------------------------------------------------|
D|------------------------------------------------------------------|
A|------------------------------------------------------------------|
E|------------------------------------------------------------------|

Guitar 2 - 3x
e|------------------------------------------------|
B|------------------------------------------------|
G|9999999999999999-5555555555555555---------------|
D|9999999999999999-5555555555555555---------------|
A|7777777777777777-3333333333333333---------------|
E|7777777777777777-3333333333333333---------------|

VERSE
Guitar 1 - reverb; use slight palm mutes throughout
  .        .         .        .
e|----------------------------------------|
B|----------------------------------------|
G|---11-11-----11-11----11-11----11-11----|
D|--9--9------9--9-----9--9-----9--9------|
A|7--------7------------------------------|
E|-------------------8--------8-----------|
[ Tab from: http://www.guitartabs.cc/tabs/b/breaking_benjamin/you_tab_ver_3.html ]
  .        .         .        .
e|------------------------------------------|
B|------------------------------------------|
G|---11-11-----11-11----11-11----11-11-12-11|
D|--9--9------9--9-----9--9-----9-----------|
A|7--------7--------------------------------|
E|-------------------8--------8-------------|

  .        .         .        .
e|----------------------------------------|
B|----------------------------------------|
G|---11-11-----11-11----11-11----11-11----|
D|--9--9------9--9-----9--9-----9--9------|
A|7--------7------------------------------|
E|-------------------8--------8-----------|

  .        .         .
e|----------------------------------------|
B|----------------------------------------|
G|---11-11-----11-11----11-11-------------|
D|--9--9------9--9-----9--9-----9999999---|
A|7--------7--------------------xxxxxxx---|
E|-------------------8--------8-8888888---|

CHORUS - 1x

BRIDGE
Guitar 2 - wah in the closed position (Guitar 2 is tabbed 5 bars down)
e|---------------------------------------------------------------|
B|---------------------------------------------------------------|
G|---------------------------------------------------------------|
D|---------------------------------------------------------------|
A|77777777777777773333333333333333777777777777777333333333333333-|
E|---------------------------------------------------------------|

Guitar 1 - starts right here --------------------^

Guitar 1 - phaser and reverb
e|19-------------------12121212--------12121212----------------12121212-|
B|---19191919-15-(8x)----------12121212--------12121212-13131313--------|
G|----------------------------------------------------------------------|
D|----------------------------------------------------------------------|
A|----------------------------------------------------------------------|
E|----------------------------------------------------------------------|

e|1414141410101010-12121212--------12121212----------------1212121214141414|
B|-------------------------12121212--------1313131312121212----------------|
G|-------------------------------------------------------------------------|
D|-------------------------------------------------------------------------|
A|-------------------------------------------------------------------------|
E|-------------------------------------------------------------------------|

e|10101010-12121212--------12121212-----------------12121212-14141414--|
B|-----------------12121212--------12121212-13131313-------------------|
G|---------------------------------------------------------------------|
D|---------------------------------------------------------------------|
A|---------------------------------------------------------------------|
E|---------------------------------------------------------------------|

e|10101010-12121212--------12121212--12-14-15-----|
B|-----------------12121212--------12-------------|
G|------------------------------------------------|
D|------------------------------------------------|
A|------------------------------------------------|
E|------------------------------------------------|

Guitar 2 - 3x
e|------------------------------------|
B|------------------------------------|
G|9999999999999999-5555555555555555---|
D|9999999999999999-5555555555555555---|
A|7777777777777777-3333333333333333---|
E|7777777777777777-3333333333333333---|

Guitar 2 - 1x
e|----------------------|
B|----------------------|
G|9999999999999-9-5-----|
D|9999999999999-9-5-----|
A|7777777777777-7-3-----|
E|7777777777777-7-3-----|
Comments
Breaking Benjamin chords | Breaking Benjamin You tab