Breaking Benjamin - Water Chords & Tabs

 

Water Chords & Tabs

Breaking Benjamin Chords & Tabs

Version: 1 Type: Bass Tab 0 ratings
1 star 2 stars 3 stars 4 stars 5 stars
comments

Water Bass Tab

Band- Breaking Benjamin
Song- Water

Intro
Gb|--------------------------|
Db|--------------------------|
Ab|--------------------------|
Db|0~----0~----0~----0~------|

Main Riff
Gb|-------------------------|-------------------------|
Dd|-------------------------|-------------------------|
Ab|----------------------1--|----------------------1--|
Db|-1p0-0-0-1p0-0-0-1p0-----|-1p0-0-0-1p0-0-0-1p0-----|

Gb|--------------------------|----------------------|
Dd|--------------------------|----------------------|
Ab|----------------------1---|-------------------543|
Db|---0-0-0-1p0-0-0-1p0------|-1p0-0-0--1p0--0--0---|

Gb|------------------------|-------------------------|
Db|------------------------|-------------------------|
Ab---------------------1---|----------------------1--|
Db|1p0-0-01p0-0-0-1p0------|-1p0-0-0-1p0-0-0-1p0-----|

Gb|--------------------------|-----------------0|
Db|--------------------------|------------------|
Ab|----------------------1---|------------------|
Db|---0-0-0-1p0-0-0--1p0-----|-1p0-0-0-1p0-0-00-|

Verse
Gb|---------------------0|
Db|----------------------|
Ab|----------------------|
Db|-1p0-0-0-1p0-0-0-1p0--|

Pre
Gb|----------------------|
Db|----------------------|
Ab|---------------------1|
Db|-1p0-0-0-1p0-0-0-1p0--|
[ Tab from: http://www.guitartabs.cc/tabs/b/breaking_benjamin/water_btab.html ]
Gb|-----------------|----------------------|
Db|-----------------|----------------------|
Ab|-5-5-5-5-5-5-5-5-|-6-6-6-6\\--1/--6-----|
Db|-----------------|----------------------|

Gb|----------------------|-------------------|
Dd|----------------------|-------------------|
Ab|---------------------1|-------------------|
Db|-1p0-0-0-1p0-0-0-1p0--|-1p0-0-0-1p0-0-----|

Gb|------------------------------------|
Dd|------------------------------------|
Ab|-5-5-5-5-5-5-5-5-|-8-8-8-8\\--1/-6--|
Db|------------------------------------|

Chorus/outro X2
Gb|--------------------------|----|-------|
Db|--------------------------|----|-------|
Ab|11111111-33333333-55555555|----|-------|
Db|--------------------------|1--3|1p0-1p0|

Post chorus
Gb|---------------------------|------------------------|
Dd|---------------------------|------------------------|
Ab|1-1--x-x-x-x--3-3--x-x-x-x-|-5--5--5--5-------------|
Db|---------------------------|-------------6--6--6--6-|

Gb|------------------------|--------------------------|----------------------|
Db|------------------------|--------------------------|----------------------|
Ab|-----------------------1|-----------------------1--|---------------------1|
Db|-1p0-0-0-1p0-0-0-1p0----|-1p0-0-0-1p0-0-0-1p0------|-0-0-0-1p0-0-0-1p0----|

Gb|----------------------0|
Db|-----------------------|
Ab|-----------------------|
Db|-1p0-0-0-1p0-0-0-1p0---|


Bridge X4
Gb|---------|
Db|---------|
Ab|-5430----|
Db|------530|
Comments