Breaking Benjamin - Sugarcoat Chords & Tabs

 

Sugarcoat Chords & Tabs

Breaking Benjamin Chords & Tabs

Version: 1 Type: Bass Tab 0 ratings
1 star 2 stars 3 stars 4 stars 5 stars
comments

Sugarcoat Bass Tab

Band- Breaking Benjamin
Song- Sugercoat

Drop D tuning

Intro/Chorus:
G:--------------------------------------------------------------------|
D:--------------------------------------------------------------------|
A:----------------------3~------------------------------3-------------|
E:2-02-x-2-02-x-2-02-x-------3~----2-02-x-2-02-x-2-02-x----3/12\3-----|

Verse/Part 1 of solo:
G:--------------------------------------------------------------------------|
D:--------------------------------------------------------------------------|
A:0--0--0--0-0-003--3--3--3-3-33--------------------------------------------|
E:--------------------------------------2--2--2--2-2-225--5--5--5-5-55------|
[ Tab from: http://www.guitartabs.cc/tabs/b/breaking_benjamin/sugarcoat_btab.html ]
Part 2 of solo (Different Rhythm):
G:-------------------------------------------------------------------------|
D:-------------------------------------------------------------------------|
A:0-0-00--0-0-003-3-33--3-3-33---------------------------------------------|
E:----------------------------------------2-2-22--2-2-225-5-55--5-5-55-----|

End of Song:
G:----------------------------------------------------------------------|
D:----------------------------------------------------------------------|
A:----------------------------------------------------------------------|
E:2-1-2--2-3-2--2-1-2--2-3-2--2-3-3--3-1-1-----------------x4-----------|

On 4th time:
G:--------------------------------------------|
D:--------------------------------------------|
A:--------------------------------------------|
E:-(2-3-3--3-1-1)-1-3-3-3-1-1-1-2~------------|
Comments