Breaking Benjamin - Sooner Or Later Chords & Tabs

 

Sooner Or Later Chords & Tabs

Breaking Benjamin Chords & Tabs

Version: 1 Type: Tab 0 ratings
1 star 2 stars 3 stars 4 stars 5 stars
comments

Sooner Or Later Tab

   
K, i can guarentee that this is the only tab on the internet of Breaking Benjamin's 
Or Later", trust me i've checked EVERYWHERE. n e ways, i got most of the song, i think it's 
80% correct email me at silenzo21@aol.com w/ changes or comments

Tuning: guitar1=drop c guitar2=drop c guitar3=drop c
Drop-c=CGCFAD
============================================================================

guitar 1 plays this until the end of the intro (that's about 16 times or so)

D|----------------------------------|
A|----------------------------------|
F|----------------------------------|
C|----------------------------------|
G|-5-3-0-3-0-3-5--------------------|
C|----------------------------------|

guitar 2 plays this in sync with guitar 1 (after gtr. 1 play riff twice)
(play about 14 times)
D|----------------------------------|
A|----------------------------------|
F|----------------------------------|
C|----------------------------------|
G|----------------------------------|
C|-5-3-0-3-0-3-5--------------------|

guitar 3 plays this after guitar 1 plays riff about 6 times or so
(repeat this twice)
D|---------------------8-8-8-8------|
A|-5-6-6-5~-5-6-6-5~-5--------------|
F|----------------------------------|
C|----------------------------------|
G|----------------------------------|
C|----------------------------------|

guitars one and two quiet down but silently let notes ring (u can do this by turning the 
down to about 3

guitar 3 plays this during verse 1

D|----------------------------------|
A|----------------------------------|
F|-0-5-0-5-0-5-0-5-0-4h5-4----------|
C|----------------------------------|
G|----------------------------------|
C|----------------------------------|

D|----------------------------------|
A|----------------------------------|
F|-0-5-0-5-7-0-5-0-5-0-4h5-4--------|
C|----------------------------------|
G|----------------------------------|
C|----------------------------------|

D|----------------------------------|
A|----------------------------------|
F|-0-5-7-7-0-5-7-7-0-5-7-7----------|
C|----------------------------------|
G|----------------------------------|
C|----------------------------------|

D|----------------------------------|
A|----------------------------------|
F|-0-5-0-4h5-4----------------------|
C|----------------------------------|
G|----------------------------------|
C|----------------------------------|

[bridge]

guitar 3 (listen to song to see when to play this during bridge)

D|-5-8-5-8--------------------------|
A|----------------------------------|
F|----------------------------------|
C|----------------------------------|
G|----------------------------------|
C|----------------------------------|

guitar 2 (listen to song to see when to play this during bridge)

D|----------------------------------|
A|----------------------------------|
F|----------------------------------|
C|-5-7-3----------------------------|
G|-3-5-1----------------------------|
C|----------------------------------|

[chorus]

guitar 2 (play 2 or 3 times)
D|----------------------------------|
A|----------------------------------|
F|----------------------------------|
C|-5555-5555-7777-7777-3333-3333----|
G|-3333-3333-5555-5555-1111-1111----|
C|----------------------------------|
[ Tab from: http://www.guitartabs.cc/tabs/b/breaking_benjamin/sooner_or_later_tab.html ]
guitar 1 (play 2 or 3 times)
D|----------------------------------|
A|----------------------------------|
F|----------------------------------|
C|----------------------------------|
G|-5555-5555-7777-7777-3333-3333----|
C|-5555-5555-7777-7777-3333-3333----|

guitar 3 (play about 4 or 5 times)
D|----------------------------------|
A|----------------------------------|
F|----------------------------------|
C|-----3-4-3-4----4-3-3-4-----------|
G|-4-4---------4-4------------------|
C|----------------------------------|

[bridge]

guitar1(repeat 4 times)
D|----------------------------------|
A|----------------------------------|
F|----------------------------------|
C|----------------------------------|
G|-4-3-0-3-0-3-4--------------------|
C|----------------------------------|

guitar2(play in sync with gtr.1 play 4 times)
D|----------------------------------|
A|----------------------------------|
F|----------------------------------|
C|----------------------------------|
G|----------------------------------|
C|-4-3-0-3-0-3-4--------------------|

guitar3(play right when guitars 1 and 2 start)
D|-----------------------------8888-|
A|-5-6-6-5~-5-6-6-5~-5-6-6-5~-5----5|
F|----------------------------------|
C|----------------------------------|
G|----------------------------------|
C|----------------------------------|

[repeat verse 1]
[repeat first bridge]
[repeat chorus]

[part right before the acoustic guitar starts]
guitar3
(this is definately not right, email me w/ changes, till then, repeat this till the part 
over)
D|----------------------------------|
A|----------------------------------|
F|----------------------------------|
C|-5/9-9-5-5/7-7-5-5/7-7------------|
G|----------------------------------|
C|----------------------------------|

guitar2 (palm mute and gently release this and repeat it till this parts over, i don't 
how many times u repeat, so listen to the song to figure it out)
D|----------------------------------|
A|----------------------------------|
F|----------------------------------|
C|----------------------------------|
G|-0-5-5-0--------------------------|
C|-0-5-5-0--------------------------|

[the acoustic part, u can use a pump or foot petal, i just turn the overdrive on my amp off]

guitar3
repeat 12 time or so (figure out the strumming pattern)
D|----------------------------------|
A|-5--------------------------------|
F|-5--------------------------------|
C|-5--------------------------------|
G|----------------------------------|
C|----------------------------------|

repeat 12 times or so (figure out the strumming pattern)
D|----------------------------------|
A|-7--------------------------------|
F|-7--------------------------------|
C|-7--------------------------------|
G|----------------------------------|
C|----------------------------------|

repeat 12 times or so (figure out the strumming pattern)
D|----------------------------------|
A|-3--------------------------------|
F|-3--------------------------------|
C|-3--------------------------------|
G|----------------------------------|
C|----------------------------------|

[repeat chorus]
[the play chorus again, but instead of guitar 3 playing it's regular tabs, play this instead]

D|----------------------------------|
A|----------------------------------|
F|----------------------------------|
C|---7b-5-5-7-----------------------|
G|-5--------------------------------|
C|----------------------------------|

k, that's pretty much it, email me w/ any comments or changes
Comments