Breaking Benjamin - Sooner Or Later Chords & Tabs

 

Sooner Or Later Chords & Tabs

Breaking Benjamin Chords & Tabs

Version: 1 Type: Bass Tab 0 ratings
1 star 2 stars 3 stars 4 stars 5 stars
comments

Sooner Or Later Bass Tab

Artist: Breaking Benjamin
Song: Sooner or Later
Tabber: Aaron Schecter

Ok, I put this song in standard tuning. I believe this may have been played on a five
string bass, but this still works. I'm not the greatest at tabbing rythms, but the notes
should be at least 95% correct. Commetns or corrections, let me know!

Intro:
G------------------------------------------------------|    guitar plays twice,
D------------------------    then come in and play x12-|
A------------------------------------------------------|
E--0-12-10-0-10-0-10-12--------------------------------|

Verse:
G-------------------------------------------|
D-------------------------------------------|
A-----1-11-11----1-11-11----1-11-11---------|
E--0~---------0~--------0~---------0~--3~--| x3

G------------|
D------------|
A------------|
E-0~--3--3~--|  third time end with this

Pre Chorus:
G------------------------------|
D------------------------------|
A--2~-s-6~-s-4~-4-4-4-4-4-4-4--|
E------------------------------|
  Hold note, then slide to the next note

Chorus:
G-------------------------------------------------|
D-------------------------------------------------|
A-2-2-2-2-2-2-2-2/4-4-4-4-4-4-4-4-----------------|
E---------------------------------4-4-4-4-4-4-4-4-|

G---------------------|
D---------------------|
A-4-4-4-4/7-7-7/9-9\--|
E---------------------|  x2

Interlude 1:
G------------------------|
D------------------------|
A------------------------|
E--0-12-10-0-10-0-10-12-|  x4

Verse

Pre Chorus
[ Tab from: http://www.guitartabs.cc/tabs/b/breaking_benjamin/sooner_or_later_btab.html ]
Chorus:
G----------------------------------------------------|
D----------------------------------------------------|
A-2-2-2-2-2-2-2-2/4-4-4-4-4-4-4-4--------------------|
E---------------------------------4-4-4-4-4-4-4-4-4--|

G----------------------------------------------------|
D-----------------------------------2-2-2-2-2-2-2-2--|
A-4-4-4-4/7-7-7/9-9\2-2-2-2-2-2-2-2------------------|
E----------------------------------------------------|

G-------------------------------------|
D-------------------------------------|
A-----------------4-4-4-4/7-7-7/9-9---|
E-4-4-4-4-4-4-4-4---------------------|

Interlude 2:
No bass until
G---------------------------|
D---------------------------|
A--5h7-7---5h7-7---3-3-3----|
E--------0-------0----------|

Outro Chorus:
No bass during acoustic part
G---------------------------|
D---------------------------|
A---4-4---7-7-9-9-----------|
E---------------------------|

G-------------------------------------------------|
D-------------------------------------------------|
A-2-2-2-2-2-2-2-2/4-4-4-4-4-4-4-4-----------------|
E---------------------------------4-4-4-4-4-4-4-4-|

G-----------------------------------------------------|
D--------------------2-2-2-2-2-2-2-2-2-2-2-2-2-2-2-2--|
A-4-4-4-4/7-7-7/9-9\----------------------------------|
E-----------------------------------------------------|

G--------------------------------------------------|
D---------------------------------2-2-2-2-2-2-2-2--|
A-4-4-4-4-4-4-4-4/2-2-2-2-2-2-2-2------------------|
E--------------------------------------------------|

G--------------------------------------------------|
D-2-2-2-2-2-2-2-2----------------------------------|
A-----------------4-4-4-4-4-4-4-4/2-2-2-2/6-6--7~--|
E--------------------------------------------------|


~ - let note ring
/ - slide
h - hammer on

Have fun with it, it's not too difficult.
Comments