Breaking Benjamin - So Cold Chords & Tabs

 

So Cold Chords & Tabs

Breaking Benjamin Chords & Tabs

Version: 6 Type: Tab 0 ratings
1 star 2 stars 3 stars 4 stars 5 stars
comments

So Cold Tab

BAND: BREAKING BENJAMIN
SONG: "SO COLD"
ALBUM: WE ARE NOT ALONE
TUNING: DROP C
SYMBOLS: PALM MUTE-.
         FULL BEND-FB
         HALF BEND-HB
         HAMMER ON-H
         PULL OFF-P
         PICK TAP-X

---THIS IS ABOUT 99% CORRECT EXCEPT FOR MY CHANGES. IT SOUNDS GOOD TO ME---

|INTRO|
 |     
 |   RHYTHM  
D|-------------|--------------------|--------------|-------------------|
A|-------------|--------------------|--------------|-------------------|
F|-------------|--------------------|--------------|-------------------|
C|---------3---|------------8---7---|---------3----|------------8--7---|
G|--5---5--5---|--10---10--10---8---|--5---5--5----|--10---10--10--8---|
C|0---0--------|0----0--------------|0---0---------|0----0-------------|
 |
 |
 |   RHYTHM                     
D|-------------|--------------------|--------------|-------------------|
A|-------------|--------------------|--------------|-------------------|
F|-------------|--------------------|--------------|-------------------|
C|---------3---|------------8---7---|---------3----|------------8--7---|
G|--5---5--5---|--10---10--10---8---|--5---5--5----|--10---10--10--8---|
C|0---0--------|0----0--------------|0---0---------|0----0-------------|
 |                                     
 |      LEAD                           
D|10-----------|10------------------|10------------|10-----------------|
A|----10--13---|---10--10H13-10-----|----10--10H13-|--10--10H13-10-----|
F|-------------|-----------------12-|--------------|----------------12-|
C|-------------|--------------------|--------------|-------------------|
G|-------------|--------------------|--------------|-------------------|
C|-------------|--------------------|--------------|-------------------|
 |
 |
 |          RHYTHM                                
D|------------------------------|---------------------------|
A|------------------------------|---------------------------|
F|------------------------------|---------------------------|
C|--------------------3---------|-------------------8----7--|
G|-----5---------5----5---------|----10-------10---10----8--|
C|0---------0-------------------|0--------0-----------------|
 |                                                         
 |          LEAD                                           
D|----------10------------------|-------10------------------|
A|-----------------10----13-----|----------10--10H13-10-----|
F|------------------------------|------------------------12-|
C|------------------------------|---------------------------|
G|------------------------------|---------------------------|
C|------------------------------|---------------------------|
 |
 |
 |          RHYTHM           
D|------------------------------|---------------------------|
A|------------------------------|---------------------------|
F|------------------------------|---------------------------|
C|--3-----------2-2-------------|---3----------2-2----------|
G|----5---3H5-------3-------3H5-|----5---3H5-------3---3H5--|
C|0-----0-----0-------0-3H5-----|0-----0-----0-------0-----3|
 |                                                         
 |           LEAD                                          
D|----------10------------------|--------10--------------12-|
A|-----------------10----13-----|------------10H13---10-----|
F|------------------------------|---------------------------|
C|------------------------------|---------------------------|
G|------------------------------|---------------------------|
C|------------------------------|---------------------------|

 |RIFF|
 |         
 |      RHYTHM                                             
D|------------------------------|---------------------------|
A|------------------------------|---------------------------|
F|------------------------------|---------------------------|
C|--3-----------2-2-------------|--3-----------2-2----------|
G|----5---3-5-------3-------3H5-|----5---3-5-------3---3H5--|
C|0-----0-----0-------0-3H5-----|0-----0-----0-------0-----3|
 |
 |        LEAD             
D|--------10--------------------|--------10--------------12-|
A|------------10--10H13--10-----|------------10H13---10-----|
F|---------------------------12-|---------------------------|
C|------------------------------|---------------------------|
G|------------------------------|---------------------------|
C|------------------------------|---------------------------|
 |
 |
 |       RHYTHM                                            
D|------------------------------|---------------------------|
A|------------------------------|---------------------------|
F|------------------------------|---------------------------|
C|--3-----------2-2-------------|--3-----------2-2-----5----|
G|----5---3H5-------3-------3H5-|----5---3H5-------3---3-3-0|
C|0-----0-----0-------0-3H5-----|0-----0-----0-------0---3-0|
 |
 |        LEAD             
D|--------10--------------------|--------10--------------12-|
A|------------10--10H13--10-----|------------10H13---10-----|
F|---------------------------12-|---------------------------|
C|------------------------------|---------------------------|
G|------------------------------|---------------------------|
C|------------------------------|---------------------------

 |VERSE|
 |
 |    RHYTHM
D|---------------------------------|---------------------------------|
A|---------------------------------|---------------------------------|
F|---------------------------------|---------------------------------|
C|---------------------------------|----------------------------H3-P0|
G|---------------------------------|----------------------------H3-P0|
C|---------------------------------|----------------------------H3-P0|
 |                                                                  
 |    LEAD                                                        
D|---------------------------------|---------------------------------|
A|--10--10-8--8-11--11-10--10------|--10--10-8--8-11--11-10--10------|
F|----------------------------10P7-|----------------------------10P7-|
C|---------------------------------|---------------------------------|  
G|---------------------------------|---------------------------------|
C|---------------------------------|---------------------------------|
 |
 |
 |    RHYTHM
D|---------------------------------|---------------------------------|
A|---------------------------------|---------------------------------|
F|---------------------------------|---------------------------------|
C|---------------------------------|------------------------H3-P0----|
G|---------------------------------|------------------------H3-P0----|
C|---------------------------------|------------------------H3-P0----|
 |                                                                  
 |     LEAD                                                        
D|---------------------------------|---------------------------------|
A|--10--10-8--8-11--11-10--10------|--10--10-8--8--------------------|
F|----------------------------10P7-|--------------10--10-9--9-7------|
C|---------------------------------|---------------------------------|  
G|---------------------------------|---------------------------------|
C|---------------------------------|---------------------------------|
 |
 |
 |     RHYTHM
D|---------------------------------|---------------------------------|
A|---------------------------------|---------------------------------|
F|---------------------------------|---------------------------------|
C|---------------------------------|----------------------------H3-P0|
G|---------------------------------|----------------------------H3-P0|
C|---------------------------------|----------------------------H3-P0|
 |                                 |                                 |
 |     LEAD                        |                                 |
D|---------------------------------|---------------------------------|
A|--10--10-8--8-11--11-10--10------|--10--10-8--8-11--11-10--10------|
F|----------------------------10P7-|----------------------------10P7-|
C|---------------------------------|---------------------------------|  
G|---------------------------------|---------------------------------|
C|---------------------------------|---------------------------------|
 |
 |
 |     RHYTHM
D|---------------------------------|---------------------------------|
A|---------------------------------|---------------------------------|
F|---------------------------------|---------------------------------|
C|---------------------------------|----------------------H3-P0------|
G|---------------------------------|----------------------H3-P0------|
C|---------------------------------|----------------------H3-P0------|
 |                                                                  
 |     LEAD                                                        
D|---------------------------------|---------------------------------|
A|--10--10-8--8-11--11-10--10------|--10--10-8--8--------------------|
F|----------------------------10P7-|--------------10--10-9--9-7------|
C|---------------------------------|---------------------------------|  
G|---------------------------------|---------------------------------|
C|---------------------------------|---------------------------------|
 |
 |           
 |       RHYTHM
D|---------------------------------|---------------------------------|
A|---------------------------------|---------------------------------|
F|---------------------------------|---------------------------------|
C|---------------------------------|----------------------H3-P0------|
G|---------------------------------|----------------------H3-P0------|
C|---------------------------------|----------------------H3-P0------|
 |
 |      LEAD
D|---------------------------------|---------------------------------|
A|--10--10-8--8-11--11-10--10------|--10-10-8--8-11--11-10-----------|
F|----------------------------10P7-|---------------------------------|
C|---------------------------------|---------------------------------|
G|---------------------------------|---------------------------------|
C|---------------------------------|---------------------------------|
 |       
 |
 |       RHYTHM
D|---------------------------------|---------------------------------|
A|---------------------------------|---------------------------------|
F|---------------------------------|---------------------------------|
C|---------------------------------|----------------------H3-P0------|
G|---------------------------------|----------------------H3-P0------|
C|---------------------------------|----------------------H3-P0------|
 |
 |       LEAD
D|-----------------10-8------------|---------------------------------|
A|--10--10-8--8-11-----------------|--10--10-8--8--------------------|
F|---------------------------------|--------------10--10-9--9-7------|
C|---------------------------------|---------------------------------|
G|---------------------------------|---------------------------------|
C|---------------------------------|---------------------------------|

 
 |CHORUS|
 |
 |     RHYTHM/LEAD
D|-----------------------------------------------------------------------|
A|------10-10101010-101010-------------------------10-10101010-101010----|
F|------10-10101010-101010-------------------------10-10101010-101010----|
C|-8--8-8--8-8-8-8--8-8-8--00-00-00-00-101010-88-8-8--8-8-8-8--8-8-8-----|
G|-8--8-8--8-8-8-8--8-8-8--00-00-00-00-101010-88-8-8--8-8-8-8--8-8-8-----|
C|-8--8-8--8-8-8-8--8-8-8--00-00-00-00-101010-88-8-8--8-8-8-8--8-8-8-----|
 |                                                                       
D|-----------------------------------------------------------------------|
A|-----------------------10-10101010-101010------------------------------|
F|-----------------------10-10101010-101010--7777-9999-10101010-12121212-|
C|-00-00-00-00--10-7-8-8-8--8-8-8-8--8-8-8---XXXX-XXXX-X-X-X-X--X-X-X-X--|
G|-00-00-00-00--10-7-8-8-8--8-8-8-8--8-8-8---5555-7777-8-8-8-8--10101010-|
C|-00-00-00-00--10-7-8-8-8--8-8-8-8--8-8-8-------------------------------|
 |                                                                       
D|-----------------------------------------------------------------------|
A|-----10-10101010-101010------------------------------------------------|
F|-----10-10101010-101010------------------------------------------------|
C|-8-8-8--8-8-8-8--8-8-8-10101010101010101010----------------------------|
G|-8-8-8--8-8-8-8--8-8-8-10101010101010101010----------------------------|
C|-8-8-8--8-8-8-8--8-8-8-10101010101010101010----------------------------|
[ Tab from: http://www.guitartabs.cc/tabs/b/breaking_benjamin/so_cold_tab_ver_6.html ]
 |RIFF|
 |
 |    RHYTHM                  
D|------------------------------|---------------------------|
A|------------------------------|---------------------------|
F|------------------------------|---------------------------|
C|--3-----------2-2-------------|--3-----------2-2-----5----|
G|----5---3H5-------3-------3H5-|----5---3H5-------3---3-3-0|
C|0-----0-----0-------0-3H5-----|0-----0-----0-------0---3-0|
 |
 |        LEAD             
D|--------10--------------------|--------10--------------12-|
A|------------10--10H13--10-----|------------10H13---10-----|
F|---------------------------12-|---------------------------|
C|------------------------------|---------------------------|
G|------------------------------|---------------------------|
C|------------------------------|---------------------------|

 |VERSE| 
 |
 |       RHYTHM
D|---------------------------------|---------------------------------|
A|---------------------------------|---------------------------------|
F|---------------------------------|---------------------------------|
C|---------------------------------|----------------------H3-P0------|
G|---------------------------------|----------------------H3-P0------|
C|---------------------------------|----------------------H3-P0------|
 |
 |     LEAD                                                        
D|---------------------------------|---------------------------------|
A|--10--10-8--8-11--11-10--10------|--10--10-8--8--------------------|
F|----------------------------10P7-|--------------10--10-9--9-7------|
C|---------------------------------|---------------------------------|  
G|---------------------------------|---------------------------------|
C|---------------------------------|---------------------------------|
 |
 |
 |       RHYTHM
D|---------------------------------|---------------------------------|
A|---------------------------------|---------------------------------|
F|---------------------------------|---------------------------------|
C|---------------------------------|----------------------H3-P0------|
G|---------------------------------|----------------------H3-P0------|
C|---------------------------------|----------------------H3-P0------|
 |
 |      LEAD
D|---------------------------------|---------------------------------|
A|--10--10-8--8-11--11-10--10------|--10-10-8--8-11--11-10-----------|
F|----------------------------10P7-|---------------------------------|
C|---------------------------------|---------------------------------|
G|---------------------------------|---------------------------------|
C|---------------------------------|---------------------------------|
 |
 |
 |       RHYTHM
D|---------------------------------|---------------------------------|
A|---------------------------------|---------------------------------|
F|---------------------------------|---------------------------------|
C|---------------------------------|----------------------H3-P0------|
G|---------------------------------|----------------------H3-P0------|
C|---------------------------------|----------------------H3-P0------|
 |
 |     LEAD                                                        
D|---------------------------------|---------------------------------|
A|--10--10-8--8-11--11-10--10------|--10--10-8--8--------------------|
F|----------------------------10P7-|--------------10--10-9--9-7------|
C|---------------------------------|---------------------------------|  
G|---------------------------------|---------------------------------|
C|---------------------------------|---------------------------------|
 |
 |
 |       RHYTHM
D|---------------------------------|---------------------------------|
A|---------------------------------|---------------------------------|
F|---------------------------------|---------------------------------|
C|---------------------------------|----------------------H3-P0------|
G|---------------------------------|----------------------H3-P0------|
C|---------------------------------|----------------------H3-P0------|
 |
 |      LEAD
D|---------------------------------|---------------------------------|
A|--10--10-8--8-11--11-10--10------|--10-10-8--8-11--11-10-----------|
F|----------------------------10P7-|---------------------------------|
C|---------------------------------|---------------------------------|
G|---------------------------------|---------------------------------|
C|---------------------------------|---------------------------------|
 |
 |
 |       RHYTHM
D|---------------------------------|---------------------------------|
A|---------------------------------|---------------------------------|
F|---------------------------------|---------------------------------|
C|---------------------------------|----------------------H3-P0------|
G|---------------------------------|----------------------H3-P0------|
C|---------------------------------|----------------------H3-P0------|
 |
 |     LEAD                                                        
D|---------------------------------|---------------------------------|
A|--10--10-8--8-11--11-10--10------|--10--10-8--8--------------------|
F|----------------------------10P7-|--------------10--10-9--9-7------|
C|---------------------------------|---------------------------------|  
G|---------------------------------|---------------------------------|
C|---------------------------------|---------------------------------|

 |CHORUS|
 |
 |    RHYTHM/LEAD
D|-----------------------------------------------------------------------|
A|------10-10101010-101010-------------------------10-10101010-101010----|
F|------10-10101010-101010-------------------------10-10101010-101010----|
C|-8--8-8--8-8-8-8--8-8-8--00-00-00-00-101010-88-8-8--8-8-8-8--8-8-8-----|
G|-8--8-8--8-8-8-8--8-8-8--00-00-00-00-101010-88-8-8--8-8-8-8--8-8-8-----|
C|-8--8-8--8-8-8-8--8-8-8--00-00-00-00-101010-88-8-8--8-8-8-8--8-8-8-----|
 |                                                                       
D|-----------------------------------------------------------------------|
A|-----------------------10-10101010-101010------------------------------|
F|-----------------------10-10101010-101010--7777-9999-10101010-12121212-|
C|-00-00-00-00--10-7-8-8-8--8-8-8-8--8-8-8---XXXX-XXXX-X-X-X-X--X-X-X-X--|
G|-00-00-00-00--10-7-8-8-8--8-8-8-8--8-8-8---5555-7777-8-8-8-8--10101010-|
C|-00-00-00-00--10-7-8-8-8--8-8-8-8--8-8-8-------------------------------|
 |                                                                       
D|-----------------------------------------------------------------------|
A|-----10-10101010-101010------------------------------------------------|
F|-----10-10101010-101010------------------------------------------------|
C|-8-8-8--8-8-8-8--8-8-8-101010101010-777777-----------------------------|
G|-8-8-8--8-8-8-8--8-8-8-101010101010-777777-----------------------------|
C|-8-8-8--8-8-8-8--8-8-8-101010101010-777777-----------------------------|
 
 |INTERLUDE|
 |
 |  RHYTHM/LEAD
D|------------------------|------------------------|
A|------------------------|------------------------|
F|------------------------|------------------------|
C|------------------------|------------------------|  
G|--------5------------5--|-------5--------3-------|
C|-0--3-5----0--3--5-6----|0--3-5----6-5-6----6-5-6|
 |
 |
 |  RHYTHM/LEAD
D|------------------------|------------------------|
A|------------------------|------------------------|
F|------------------------|------------------------|
C|------------------------|------------------------|  
G|--------5------------5--|-------5--------3-------|
C|-0--3-5----0--3--5-6----|0--3-5----6-5-6----6-5-6|
 |
 |
 |  RHYTHM
D|------------------------|------------------------|
A|------------------------|------------------------|
F|------------------------|------------------------|
C|------------------------|------------------------|  
G|--------5------------5--|-------5--------3-------|
C|-0--3-5----0--3--5-6----|0--3-5----6-5-6----6-5-6|
 |
 |   LEAD                      FB                                        LR
D|----------------------------------------------------------------------10-|
A|10-101010-10~10~10~10~-1010-----------------------------------10-10h13---|
F|10-101010-10~10~10~10~-1010-12(12)-12p10--10-------------10h12-----------|
C|--------------------------------------------12---12p10h12----------------|
G|-------------------------------------------------------------------------|
C|-------------------------------------------------------------------------|
 |
 |
 |  RHYTHM
D|------------------------|------------------------|
A|------------------------|------------------------|
F|------------------------|------------------------|
C|------------------------|------------------------|  
G|--------5------------5--|-------5--------3-------|
C|-0--3-5----0--3--5-6----|0--3-5----6-5-6----6-5-6|
 |  
 | HB     FB      FB    FB       FB          LEAD
D|--------10(10)-----10-15--(15)-15--15~--10-------------------------------|
A|-13(13)-13(13)--13-------------------------13p10--10---------------------|
F|------------------------------------------------12---12p10-12p10--10-----|
C|----------------------------------------------------------------12--12p10|
G|-------------------------------------------------------------------------|
C|-------------------------------------------------------------------------|
 
 |CHORUS|
 |
 |    RHYTHM/LEAD
D|-----------------------------------------------------------------------|
A|------10-10101010-101010-------------------------10-10101010-101010----|
F|------10-10101010-101010-------------------------10-10101010-101010----|
C|-8--8-8--8-8-8-8--8-8-8--00-00-00-00-101010-88-8-8--8-8-8-8--8-8-8-----|
G|-8--8-8--8-8-8-8--8-8-8--00-00-00-00-101010-88-8-8--8-8-8-8--8-8-8-----|
C|-8--8-8--8-8-8-8--8-8-8--00-00-00-00-101010-88-8-8--8-8-8-8--8-8-8-----|
 |                                                                       
D|-----------------------------------------------------------------------|
A|-----------------------10-10101010-101010------------------------------|
F|-----------------------10-10101010-101010--7777-9999-10101010-12121212-|
C|-00-00-00-00--10-7-8-8-8--8-8-8-8--8-8-8---XXXX-XXXX-X-X-X-X--X-X-X-X--|
G|-00-00-00-00--10-7-8-8-8--8-8-8-8--8-8-8---5555-7777-8-8-8-8--10101010-|
C|-00-00-00-00--10-7-8-8-8--8-8-8-8--8-8-8-------------------------------|
 |                                                                       
E|-----------------------------------------------------------------------|
A|-----10-10101010-101010------------------------------------------------|
F|-----10-10101010-101010------------------------------------------------|
C|-8-8-8--8-8-8-8--8-8-8-1010101010101010-111111111111-------------------|
G|-8-8-8--8-8-8-8--8-8-8-1010101010101010-111111111111-------------------|
C|-8-8-8--8-8-8-8--8-8-8-1010101010101010-111111111111-------------------|

 
 |BRIDGE 2|
 |    LEAD
D|-------------------------------------|-----------------------------------|
A|10-----10-----10-----10--------------|10----10-----10-----10-------------|
F|10-----10-----10-----10------9-------|10----10-----10-----10-----9-------|
C|---0-0----0-0----0-0----0-0--8-8-8-8-|--0-0----0-0----0-0----0-0-8-8-8-8-|
G|-------------------------------------|-----------------------------------|
C|-------------------------------------|-----------------------------------|
     . .    . .    . .    . .    . . .    . .    . .    . .    . .    . . .
 
 |OUTRO|
 |   RHYTHM/LEAD
D|-------------------------|
A|--10101010---------------|
F|--10101010---------------|
C|--8-8-8-8----------------|
G|--8-8-8-8----------------|
C|-------------------------|
 |
 |
 |  RHYTHM/LEAD
D|--------------------------|------------------|
A|-----------10101010-------|----------10101010|
F|-----------10101010-------|----------10101010|
C|-0-00X0-00-8-8-8-8--------|0-00X0-00-8-8-8-8-|
G|-0-00X0-00-8-8-8-8--------|0-00X0-00-8-8-8-8-|
C|-0-00X0-00----------------|0-00X0-00---------|
 |
 |
 |  RHYTHM/LEAD
D|--------------------------|------------------|
A|-----------10101010-------|----------10101010|
F|-----------10101010-------|----------10101010|
C|-0-00X0-00-8-8-8-8--------|0-00X0-00-8-8-8-8-|
G|-0-00X0-00-8-8-8-8--------|0-00X0-00-8-8-8-8-|
C|-0-00X0-00----------------|0-00X0-00---------|
 |
 |
 |   RHYTHM/LEAD
D|---------------------------------|---------------------------|
A|---------------------------------|---------------------------|
F|--777-101010-999-10101010101010--|--7---------10----------9~~|
C|--XXX-X-X-X--XXX-X-X-X-X-X-X-X---|--X---------X-----------X~~|
G|--555-8-8-8--777-8-8-8-8-8-8-8---|--5---------8-----------7~~|
C|---------------------------------|---------------------------|
Comments