Breaking Benjamin - So Cold Chords & Tabs

 

So Cold Chords & Tabs

Breaking Benjamin Chords & Tabs

Version: 3 Type: Bass Tab 0 ratings
1 star 2 stars 3 stars 4 stars 5 stars
comments

So Cold Bass Tab

   
Tab by: milezero
Artist: Breaking Benjamin
Song: So Cold

| /  slide up
| \  slide down
| h  hammer-on
| p  pull-off
| ~  vibrato
| +  harmonic
| x  Mute note
===============================================================================

Tunning: CGCF(true tunning) or DADG


Sync with cymbal
|--------|
|-0----0-|
|--------|
|--------|



(optional) Guitar2 intro for bass.
|--10-7---5h7---9-9-5-------5h7-|--10-7---5h7---9-9-5---5h7---|
|-0-----0-----0-------0-3h5-----|-0-----0-----0-------0-----3-|
|-------------------------------|-----------------------------|
|-------------------------------|-----------------------------|

|--10-7---5h7---9-9-5-------5h7-|--10-7---5h7---9-9-5---5----|
|-0-----0-----0-------0-3h5-----|-0-----0-----0-------0---3--|
|-------------------------------|----------------------------|
|-------------------------------|----------------------------|



Bridge
|-------------------------------|-----------------------------|
|-------------------------------|-----------------------------|
|---8-5---3h5---7-7-3-------3h5-|---8-5---3h5---7-7-3---3h5---|
|-0-----0-----0-------0-3h5-----|-0-----0-----0-------0-----3-|

|-------------------------------|---------------------------|
|-------------------------------|---------------------------|
|---8-5---3h5---7-7-3-------3h5-|---8-5---3h5---7-7-3---3---|
|-0-----0-----0-------0-3h5-----|-0-----0-----0-------0---3-|



Verse					     x3
|---------------------|-----------------------|
|---------------------|--------3-2------------|
|-----------------3-5-|------------5-3-5------|
|3-0---------3-0------|---3-0-------------3-0-|

|-----------------3------------------------|
|---------------23-----------------222-3-5-|
|-----3-5-3h5-35-----3-5-3h5--3-55---------|
|-3-0--------------3-----------------------|



Chorus
|-------------------------------|------------------------------|
|-------------------------------|------------------------------|
|-11111111------------------333-|-11111111-----------------3-0-|
|-----------00--00--00--00------|-----------00--00--00--00-----|

|--------------------------------------------|
|--------------------------------------------|
|-11111111-----------------11111111-33333333-|
|-----------0--2--3--------------------------|
[ Tab from: http://www.guitartabs.cc/tabs/b/breaking_benjamin/so_cold_btab_ver_3.html ]


Bridge
|-------------------------------|---------------------------|
|-------------------------------|---------------------------|
|---8-5---3h5---7-7-3-------3h5-|---8-5---3h5---7-7-3---3---|
|-0-----0-----0-------0-3h5-----|-0-----0-----0-------0---3-|



Verse 2				       x7
|---7-5h7---------457---5h7--754--------|
|-5-------5-----57----5----5----75------|
|-----------5778------------------8775--|
|---------------------------------------|

|-----7-5h7--------457/15-1414-1412-12--------12--|
|---5-------5----57-------------------15141415--14|
|-------------5778--------------------------------|
|-------------------------------------------------|



Chorus
|-------------------------------|------------------------------|
|-------------------------------|------------------------------|
|-11111111------------------333-|-11111111-----------------3-0-|
|-----------00--00--00--00------|-----------00--00--00--00-----|

|--------------------------------------------|
|--------------------------------------------|
|-11111111-----------------11111111-3333-0000|
|-----------0--2--3--5-----------------------|



Bridge
|-------------------------------|---------------------------|
|-------------------------------|---------------------------|
|---8-5---3h5---7-7-3-------3h5-|---8-5---3h5---7-7-3---3---|
|-0-----0-----0-------0-3h5-----|-0-----0-----0-------0---3-|



Interlude				      x4
|----------------------------------------------|
|----------------------------------------------|
|-------5------------5--------5--------3-------|
|-0-3h5----0--3--5-6----0-3h5----6-5-6---6-5-6-|



Chorus
|---------------------------------------------|
|-----------0-2/3----------------------0-23/5-|
|111111-1-3---------------33-1111111-3--------|
|----------------00-00-00---------------------|

|-----------32-----------------3------------------|
|-------------53----------------------------------|
|-111111-3h5------------11111-5-5-1-333333-5555555|
|---------------0-2-3-5---------------------------|



Guitar Fill



Outro 1		     x4
|---------------------|
|---------------------|
|----------------8888-|
|-0-0-0---0-0-0-------|



Outro 2	     x3
|-------------|-------7-|
|-------------|---------|
|-5--8--7--8/-|-5--8----|
|-------------|---------|
Comments