Breaking Benjamin - Skin Chords & Tabs

 

Skin Chords & Tabs

Breaking Benjamin Chords & Tabs

Version: 4 Type: Tab 0 ratings
1 star 2 stars 3 stars 4 stars 5 stars
comments

Skin Tab

   
               ********************************************
               ***                                      ***
               ***          Breaking Benjamin           ***
               ***             Saturate                 ***
               ***               Skin                   ***
               ********************************************

This songs tuning is(Db-Ab-Db-Gb-Bb-eb)-im not sure if this
is the tuning they use but wut i tab sounds 100% correct
in this tuning
-key-------------
P.M.=Palm Mute  |
/=slide         |
*=harmonic      |
~=hold          |
-----------------
Intro
guitar 1
eb------------------------------------
Bb------------------------------------
Gb------------------------------------
Db-0-0-x-x-0-0-0-7-7-5-5-x-x-5-5-5-8-8
Ab-0-0-x-x-0-0-0-7-7-5-5-x-x-5-5-5-8-8
Db-0-0-x-x-0-0-0-7-7-5-5-x-x-5-5-5-8-8

guitar 2
eb--------------------------------------------
Bb--------------------------------------------
Gb-7-6-7-9-7-6-7~~7-6-7-10-9-7---7-6-7-9-7-6-7
Db-----------------------------7--------------
Ab--------------------------------------------
Db--------------------------------------------

Verse 1
P.M.-    -------     -   ----
eb--------------------------------
Bb--------------------------------
Gb--------------------------------
Db---0-0-0-0-0-0-0-7-5-5-5-5-5-5-8
Ab---0-0-0-0-0-0-0-7-5-5-5-5-5-5-8
Db---0-0-0-0-0-0-0-7-5-5-5-5-5-5-8

eb------------------
Bb------------------
Gb------------------
Db-5-5-5-5-7-7-7-7-7
Ab-5-5-5-5-7-7-7-7-7
Db-5-5-5-5-7-7-7-7-7

Pre Chorus
eb---------------------------------
Bb---------------------------------
Gb-----6-7-----6-7----6-7-----6-7--
Db-9-9-----7-7-----5-5----5-5------
Ab-9-9-----7-7-----5-5----5-5------
Db-9-9-----7-7-----5-5----5-5------

eb------------------------------------
Bb-----5-7-----5-7-------5-7------5-7-
Gb-----6-7-----6-7-------6-7------6-7-
Db-9-9-----7-7-------5-5------5-5-----
Ab-9-9-----7-7-------5-5------5-5-----
Db-9-9-----7-7-------5-5------5-5-----

Chorus
guitar 1
eb-------------------------
Bb-------------------------
Gb-------------------------
Db-0-0-0-0-7-7-7-7-5-5-5-5-
Ab-0-0-0-0-7-7-7-7-5-5-5-5-
Db-0-0-0-0-7-7-7-7-5-5-5-5-

guitar 2(played with guitar 1)
eb----------
Bb-7-8-10-8-
Gb----------
Db----------
Ab----------
Db----------

eb----------------------------------
Bb----------------------------------
Gb-----------------------5*----5*---
Db-7-7-7-7-7-7-5-5-5-5-5----9*----9*
Ab-7-7-7-7-7-7-5-5-5-5-5------------
Db-7-7-7-7-7-7-5-5-5-5-5------------
[ Tab from: http://www.guitartabs.cc/tabs/b/breaking_benjamin/skin_tab_ver_4.html ]
Verse 2(same as verse 1)
Verse 1
P.M.-    ---         -   -----
eb--------------------------------
Bb--------------------------------
Gb--------------------------------
Db---0-0-0-0-0-0-0-7-5-5-5-5-5-5-8
Ab---0-0-0-0-0-0-0-7-5-5-5-5-5-5-8
Db---0-0-0-0-0-0-0-7-5-5-5-5-5-5-8

eb------------------
Bb------------------
Gb------------------
Db-5-5-5-5-7-7-7-7-7
Ab-5-5-5-5-7-7-7-7-7
Db-5-5-5-5-7-7-7-7-7

Prechorus
eb---------------------------------
Bb---------------------------------
Gb-----6-7-----6-7----6-7-----6-7--
Db-9-9-----7-7-----5-5----5-5------
Ab-9-9-----7-7-----5-5----5-5------
Db-9-9-----7-7-----5-5----5-5------

eb------------------------------------
Bb-----5-7-----5-7-------5-7------5-7-
Gb-----6-7-----6-7-------6-7------6-7-
Db-9-9-----7-7-------5-5------5-5-----
Ab-9-9-----7-7-------5-5------5-5-----
Db-9-9-----7-7-------5-5------5-5-----

Chorus
guitar 1
eb-------------------------
Bb-------------------------
Gb-------------------------
Db-0-0-0-0-7-7-7-7-5-5-5-5-
Ab-0-0-0-0-7-7-7-7-5-5-5-5-
Db-0-0-0-0-7-7-7-7-5-5-5-5-

guitar 2(played with guitar 1)
eb----------
Bb-7-8-10-8-
Gb----------
Db----------
Ab----------
Db----------

eb----------------------------------
Bb----------------------------------
Gb-----------------------5*----5*---
Db-7-7-7-7-7-7-5-5-5-5-5----9*----9*
Ab-7-7-7-7-7-7-5-5-5-5-5------------
Db-7-7-7-7-7-7-5-5-5-5-5------------

Breakdown
eb---------------------------                       eb---         
Bb---------------------------                       Bb---
Gb-11--14-12-15-14-18-19--21- on 2nd time bend this-Gb-21
Db--x--x---x--x--x-x---x--x--                       Db-x-
Ab--9--12-10-13-12-16-17--19-                       Ab-19
Db---------------------------                       Db---

Prechorus
eb---------------------------------
Bb---------------------------------
Gb-----6-7-----6-7----6-7-----6-7--
Db-9-9-----7-7-----5-5----5-5------
Ab-9-9-----7-7-----5-5----5-5------
Db-9-9-----7-7-----5-5----5-5------

eb------------------------------------
Bb-----5-7-----5-7-------5-7------5-7-
Gb-----6-7-----6-7-------6-7------6-7-
Db-9-9-----7-7-------5-5------5-5-----
Ab-9-9-----7-7-------5-5------5-5-----
Db-9-9-----7-7-------5-5------5-5-----

Chorus
guitar 1
eb-------------------------
Bb-------------------------
Gb-------------------------
Db-0-0-0-0-7-7-7-7-5-5-5-5-
Ab-0-0-0-0-7-7-7-7-5-5-5-5-
Db-0-0-0-0-7-7-7-7-5-5-5-5-

guitar 2(played with guitar 1)
eb----------
Bb-7-8-10-8-
Gb----------
Db----------
Ab----------
Db----------

Ending
eb--------
Bb--------
Gb--------
Db-2-2/5~~
Ab-2-2/5~~
Db-2-2/5~~

Well thats it,if you have any corrections or have a problem with 
the tab click on "correct this tab" on the top of this page..thanks
Comments