Breaking Benjamin - Skin Chords & Tabs

 

Skin Chords & Tabs

Breaking Benjamin Chords & Tabs

Version: 3 Type: Tab 0 ratings
1 star 2 stars 3 stars 4 stars 5 stars
comments

Skin Tab

Ok i hate to be critical but you really need to stop letting people submit tabs
that dont really know whats going on with the song...i looked all over the net
for this tab and couldnt find a real good one so downloaded a live video, took a
look at it, and came up with this....i dont know if its exact but its 70 times
better than anything else...the trick is to left hand mute at the right time.
and ya also this band has to guitarist.

intro/main riff - guitar 1
---------------------|----------------------
---------------------|----------------------
----------------(6)-6|----------------------
-8-8-(88)-8-8-8-(6)-6|-5-5-(55)-5-5-5-(7)-7-
-8-8-(88)-8-8-8-(4)-4|-5-5-(55)-5-5-5-(7)-7-
-6-6-(66)-6-6-6------|-3-3-(33)-3-3-3-(5)-5-
                       ^
ends on the arrow (^)

intro/main riff - guitar 2
guitar 2 does the same riff 2 times then comes in a does...
------------------------|----------------------
------------------------|----------------------
------------------------|----------------------
------------------------|-----------14-12-11-9-
-9-11-10-11-14-12-10-11-|-9-11-10-11-----------
------------------------|----------------------

verse - one guitar(palm muted)
---------------------|----------------------
---------------------|----------------------
----------------(6)-6|----------------------
-8-8-(88)-8-8-8-(6)-6|-5-5-(55)-5-5-5-(7)-7-
-8-8-(88)-8-8-8-(4)-4|-5-5-(55)-5-5-5-(7)-7-
-6-6-(66)-6-6-6------|-3-3-(33)-3-3-3-(5)-5-
[ Tab from: http://www.guitartabs.cc/tabs/b/breaking_benjamin/skin_tab_ver_3.html ]
verse - second guitar - you cant hardly hear it on the cd but its there cuz you
can hear it and see it live...starts when he sings "cuz your OLD" when he
says "old" thats when you hit it...it goes bout the same as the little solo
towards the end only not as fast.
---------------|--------------------|---------------|--------------------
---------------|--------------------|---------------|--------------------
---------------|--------------------|---------------|--------------------
---------------|--------------------|---------------|--------------------
-9v-9-9-9-9-12-|-10v-10-10-10-10-13-|-9v-9-9-9-9-12-|-10v-10-10-10-10-13-
---------------|--------------------|---------------|--------------------

the the prechorus is the same as the guitar 2 intro.

chorus - guitar 1
-----------------------------------------------------------------
-----------------------------------------------------------------
-----------------6-6-6-6-6-6-6-6---------------------------------
-8-8-8-8-8-8-8-8-6-6-6-6-6-6-6-6-5-5-5-5-5-5-5-5-7-7-7-7-7-7-7-7-
-8-8-8-8-8-8-8-8-4-4-4-4-4-4-4-4-5-5-5-5-5-5-5-5-7-7-7-7-7-7-7-7-
-6-6-6-6-6-6-6-6-----------------3-3-3-3-3-3-3-3-5-5-5-5-5-5-5-5-

and guitar 2 is still playing the intro riff throughout the chorus

v"save yourself.."v
---------------------------------
---------------------------------
---------------------------------
-4-4-4-4-4-4-4-4-7-7-7-7-7-7-7-7-
-4-4-4-4-4-4-4-4-7-7-7-7-7-7-7-7-
-2-2-2-2-2-2-2-2-5-5-5-5-5-5-5-5-

solo - same as the second guitar verse only alot faster, basicly as fast as you can play it.

and thats it, im thinkin...90%?!?.....anyway its tons closer than anything else
ive seen, so i hope this helps alot of you out. bull_sv_88@hotmail.com
thats my email but you got a better chance of getting me on msn that email cuz
i hardly check it...anyway later!
Comments