Breaking Benjamin - Simple Design Chords & Tabs

 

Simple Design Chords & Tabs

Breaking Benjamin Chords & Tabs

Version: 2 Type: Tab 0 ratings
1 star 2 stars 3 stars 4 stars 5 stars
comments

Simple Design Tab

Author/Artist: Breaking Benjamin
Title: Simple Design
Transcribed by: Rudy
Website: www.geocities.com/creed989

Drop C-tune, enjoy this!!
**Revised: Found some mistakes, fixed 'em and added
the acousitc part


Intro:
----------------------------------------
----------------------------------------
----------------------------------------
--xx-10-9-7-5--0-3----------------------2x
--xx-10-9-7-5--0-3-------3h5------3h5p0-
--xx-10-9-7-5--0-3--0-0-------0-0-------
                                                                              
[ Tab from: http://www.guitartabs.cc/tabs/b/breaking_benjamin/simple_design_tab_ver_2.html ]
-------------------------------------------------
-------------------------------------------------
--9\7/9\7--5/7-----------------------------------
-------------------------------------0--12/-15~--
--7\5/7\5--3/5------3h5-----3h5p0----0--12/-15~--
----------------0-0-----0-0----------0--12/-15~--
                                               
                              last time
-----------------------------|----------
-----------------------------|----------
-----------------11-11-11-11-|----------
-0-0h(10)-0-0-0--------------|---0-0h3--
-0-0h(10)-0-0-0--9--9--9--9--|---0-0h3--
-0-0h(10)-0-0-0--------------|---0-0h3--
                                                                              
Verse                           full bend
-------------------------------|-----
-------------------------------|-----
-5-5/7--5-5/7--12-12\11--5-5/7-|-7b--
-------------------------------|-----
-3-3/5--3-3/5--10-10\9---3-3/5-|-5b--
-------------------------------|-----
                                                                              
Pre-Chorus   Chorus       End Chorus
------------|------------|-----------
------------|------------|-----------
------------|------------|-----------
-9--4-5-x-7-|--0-7--4-5--|-9-7-4-5---
-9--4-5-x-7-|--0-7--4-5--|-9-7-4-5---
-9--4-5-x-7-|--0-7--4-5--|-9-7-4-5---
                                                                              
Bridge
------------------------------
------------------------------
-7--11b-14b--14\12\11\9/--11b-
------------------------------
-5--9b--12b--12\10\9-\7/--9b--
------------------------------

Acoustic part
------0h2-------0h2-------2h3-------0h2---
----3-----3---3-----3---3-----3---3-----3-
------------------------------------------
--0---------------------------------------
------------3---------2-------------------
--------------------------------5---------
                                                                              
     pause                     pause
---------------------------------------------------------
-3-3-3---3-3-3-------------3-3-3---3-3-3-----------------
-2-2-2---2-2-2-------------2-2-2---2-2-2-----------------
-0-0-0---0-0-0-------------0-0-0---0-0-0-----------------
-0-0-0---0-0-0---5p3p0-----0-0-0---0-0-0---5p3p0----3h5--
-0-0-0---0-0-0---------3b--0-0-0---0-0-0---------3b------
                                                                              
Solo                 full bend/ pick bend and release then play 15 
------------------------------------------------
--15-15--15----17p15h17b---r17-15---------------
----------------------------------11------------
--------------------------------------x-x-x-x---
--------------------------------------x-x-x-x---
--------------------------------------x-x-x-x---

Fast Part (???)
----------------------------------------------
----------------------------------------------
----------------------------------------------
----------------------------------------------
-----5--3--0--------------------------0--3--5-
--0-----------5--3--0--3--5--0--3--5----------
                                                                              
Outro
--------------0-0-0--
--------------3-3-3--
--------------2-2-2--
-0--12/--15---0-0-0--
-0--12/--15---0-0-0--
-0--12/--15---0-0-0--
Comments