Breaking Benjamin - Shallow Bay Chords & Tabs

 

Shallow Bay Chords & Tabs

Breaking Benjamin Chords & Tabs

Version: 1 Type: Tab 0 ratings
1 star 2 stars 3 stars 4 stars 5 stars
comments

Shallow Bay Tab

   
Artist: Breaking Benjamin
Title: "Shallow Bay"

*Tuning*
Eb
Bb
F#
Db
Ab
Db

------------------[tabbed by: aaron eisenberg]----
------------------[email: bluesfan62@yahoo.com]---

Intro:
Eb -----------------------------------------------------------------
Bb -----------------------------------------------------------------
F# -----------------------------------------------------------------
Db ---2h5p2p0---2-2-2-2-2-2---2h5p2p0---2-2-2-2-2-0-----------------
Ab ---2h5p2p0---2-2-2-2-2-2---2h5p2p0---2-2-2-2-2-0--------x4-------
Db ---2h5p2p0---2-2-2-2-2-2---2h5p2p0---2-2-2-2-2-0-----------------

Verse first half:
Eb---------------------------------------------------------------
Bb---------------------------------------------------------------
F#---------------------------------------------------------------
Db----------------2-2-2-2-2-2--------------2-2-2-2-2-0-----------
Ab--------2h3p2---2-2-2-2-2-2-------2h3p2--2-2-2-2-2-0-----x2----
Db---2h5----------2-2-2-2-2-2---2h5--------2-2-2-2-2-0-----------
         palm mute..................all of this.
[ Tab from: http://www.guitartabs.cc/tabs/b/breaking_benjamin/shallow_bay_tab.html ]
Verse second half:
Eb------------------------------------------------------------
Bb------------------------------------------------------------
F#------------------------------------------------------------
Db------------2-2-2-2-2-2------------2-2-2-2-2-0--------------
Ab------------2-2-2-2-2-2------------2-2-2-2-2-0----x2--------
Db---2h5p2p0--2-2-2-2-2-2---2h5p2p0--2-2-2-2-2-0--------------
	palm mute...................all of this too. 

Chorus...  Listen a few times to get the strumming pattern down, but these are the chords:
Eb------------------------------------------------------
Bb------------------------------------------------------
F#---5--------7------------------------5--4---------
Db---5--5--0--7--0--2------------------5--4---------
Ab---3--5--0--5--0--2----x3---end on---3--2---------
Db------5--0-----0--2----------------------------------

Bridge:
Eb----------------------------------------------
Bb----------------------------------------------
F#----------7--5--------------------------------
Db---0--2---7--5--------------------------------
Ab---0--2---5--3--------------------------------
Db---0--2---------------------------------------

Outro:
Eb--------------------------------------------------------------------------------
Bb--------------------------------------------------------------------------------
F#--------------------------------------------------------------------------------
Db---5---4p2p0-5---5p4p0----4p0-0-5--5p0----2---4p0-0-5---5p4p0----4p0-0-5---4p0--
Ab-----------------------3--------------------------------------3-----------------
Db--------------------------------------------------------------------------------
etc etc.... they play that with a some variation for the rest of the track..
Comments