Breaking Benjamin - Rain Chords & Tabs

 

Rain Chords & Tabs

Breaking Benjamin Chords & Tabs

Version: 4 Type: Tab 0 ratings
1 star 2 stars 3 stars 4 stars 5 stars
comments

Rain Tab

   
You are all wrong...If you listen to the song, not once does he play any of
the following strings: g, b, or e.  It's all played using the low end strings:
E, A, and D

Its easy to figure out the rhythm if you listen to the song.
[ Tab from: http://www.guitartabs.cc/tabs/b/breaking_benjamin/rain_tab_ver_4.html ]
Verse
e-----------------------------------------------|
b-----------------------------------------------|
g-----------------------------------------------|
D--4----4-----4---4----4----9---7---5-----------|
A--5----5-----5---5----5----9---7---5-----------|
E--5----3-----5---3----5----7---5---3-----------|

Bridge....."To lie here under you...."
e-----------------------------------------------|
b-----------------------------------------------|
g-----------------------------------------------|
D--4---4---4---4---4---4------------------------|
A--4---5---4---5---4---5------------------------|
E--2---3---2---3---2---3------------------------|
Comments