Breaking Benjamin - Rain Chords & Tabs

 

Rain Chords & Tabs

Breaking Benjamin Chords & Tabs

Version: 3 Type: Tab 0 ratings
1 star 2 stars 3 stars 4 stars 5 stars
comments

Rain Tab

Band: Breaking Benjamin
Song: Rain
Tabbed by: GergleRock86
Email: looney2006@hotmail
Ok this is from  ooolookie's version of it but made for those of you who don't
understand chords, also you need to figure out the rythm yourself

Intro/Verse
e|------------------0--2-------|
B|-1--1----1-----1--1--2-------|
G|-0--0----0--0--0--2-----0----|
D|-2--2----2--3--2--2-----3----|
A|-3--3----3--3--3-----2--3----|
E|----1-------1--------3--1----|

Chorus
e|-0--------0-----2------|
B|-1--------2-----2------|
G|-2--0--0--2--0-----0---|
D|-2--3--2--2--3-----3---|
A|----3--2-----3--2--3---|
E|----1--0-----1--3--1---|
[ Tab from: http://www.guitartabs.cc/tabs/b/breaking_benjamin/rain_tab_ver_3.html ]
Verse 2
e|------------------0--2-------|
B|-1--1----1-----1--1--2-------|
G|-0--0----0--0--0--2-----0----|
D|-2--2----2--3--2--2-----3----|
A|-3--3----3--3--3-----2--3----|
E|----1-------1--------3--1----|

Chorus
e|-0--------0-----2-----0-----------0-----2---|
B|-1--------2-----2-----1-----------2-----2---|
G|-2--0--0--2--0-----0--2--0--0--0--2--0------|
D|-2--3--2--2--3-----3--2--3--2--3--2--3------|
A|----3--2-----3--2--3-----3--2--3-----3--2---|
E|----1--0-----1--3--1-----1--0--1-----1--3---|

Interlude
e|---------------2---------|
B|-1--1----1-----2---------|
G|-0--0----0--0------------|
D|-2--2----2--3------------|
A|-3--3----3--3--2---------|
E|----1-------1--3---------|
Comments