Breaking Benjamin - Rain Chords & Tabs

 

Rain Chords & Tabs

Breaking Benjamin Chords & Tabs

Version: 2 Type: Tab 0 ratings
1 star 2 stars 3 stars 4 stars 5 stars
comments

Rain Tab

   
-------------------------------------------------------------------------------
			     Rain - Breaking Benjamin
-------------------------------------------------------------------------------
Tabbed by:E.D.Hory
Email:webfoot@mail.com

So you want to play rain ??

tune all strings down 2 1/2 steps

now drop low E 2 more 1/2 steps

then you could remove high E cause you're not gonna need it!

play your wound strings full and go light on the wires!!

Tuning: C G C F A D

Intro: (7th chord gets one strum)
                                  \
e|-x---x---x---x---x---x----x---x---x--|
B|-3---7---3---5---3--------x---x---x--|
G|-2---7---2---7---2---11---x---9---7--|
D|-4---5---4---7---4---12---11--7---5--|
A|-----5-------5-------9----7---7---5--|
E|-----5-------5-------9----7---7---5--|

Verse: (7th chord gets one strum)
                                  \
e|-x---x---x---x---x---x----x---x---x--|
B|-3---7---3---7---3--------x---x---x--|
G|-2---7---2---7---2---11---x---9---7--|  Repeat
D|-4---5---4---5---4---12---11--7---5--|
A|-----5-------5-------9----7---7---5--|
E|-----5-------5-------9----7---7---5--|

First Chorus:

e|-x---x---x--|
B|-3-------3--|
G|-2----------|  Repeat
D|-4----------|
A|-----2---5--|
E|-----2---5--|
[ Tab from: http://www.guitartabs.cc/tabs/b/breaking_benjamin/rain_tab_ver_2.html ]
Verse: (7th chord gets one strum)
                                  \
e|-x---x---x---x---x---x----x---x---x--|
B|-3---7---3---7---3--------x---x---x--|
G|-2---7---2---7---2---11---x---9---7--|  Repeat
D|-4---5---4---5---4---12---11--7---5--|
A|-----5-------5-------9----7---7---5--|
E|-----5-------5-------9----7---7---5--|

Second Chorus:

e|-x---x---x--|
B|-3-------3--|
G|-2----------|  Repeat 3 x (total of 4)
D|-4----------|
A|-----2---5--|
E|-----2---5--|

Bridge:
                               \  
e|-x----x---x---x---x----x---x---x---x----x---x---x---x----x---x--|
B|------5---2---5--------5---x---x--------5---2---5--------5---x--|
G|-11---7---2---7---11---7---9---7---11---7---2---7---11---7---9--|
D|-12---7---4---7---12---7---7---5---12---7---4---7---12---7---7--|
A|-9----5---4---5---9----5---7---5---9----5---4---5---9----5---7--|
E|-9----5---2---5---9----5---7---5---9----5---2---5---9----5---7--|

Final Chorus:
                               /  
e|--x---x---x---x---x---x---x---x---x--x---x---x---x---x---x---x---x---x---x---x---x--|
B|--3---7---3---7---3-------3---x---3--7---3---7---3-------3---3-------3---3-------3--|
G|--2---7---2---7---2-----------x---2--7---2---7---2-----------2-----------2----------|
D|--4---5---4---5---4-----------7---4--5---4---5---4-----------4-----------4----------|
A|------5-------5-------2---5---7------5-------5-------2---5-------2---5-------2---5--|
E|------5-------5-------2---5---7------5-------5-------2---5-------2---5-------2---5--|




| /  slide up
| \  slide down
| h  hammer-on
| p  pull-off
| ~  vibrato
| +  harmonic
| x  Mute note
===============================================================================
Comments