Breaking Benjamin - Rain Chords & Tabs

 

Rain Chords & Tabs

Breaking Benjamin Chords & Tabs

Version: 1 Type: Tab 2 ratings
1 star 2 stars 3 stars 4 stars 5 stars
comments

Rain Tab

   
Author/Artist: Breaking Benjamin
Title: Rain
Transcribed by: Rudy
Website: www.geocities.com/creed989

C G C F A D -tune

I got this version from watching them on AOL
sessions. Number of strums not indicated,
listen to the song and you'll know.

Intro/Verse
------------------------------------------------
------------------------------------------------
------------------------------------9-9---------
-4-4--5-5--4-4--7-7--4-4--12-12-11--7-7--7--7---
-0-0--5-5--0-0--5-5--0-0--9--9--7---7-7--5--5---
-0-0--5-5--0-0--5-5--0-0--9--9--7---7-7--5--5---
                                                                              
[ Tab from: http://www.guitartabs.cc/tabs/b/breaking_benjamin/rain_tab.html ]
Chorus                    End Chorus
-------------------------|---------------------
-3--3--------3--3--------|--3--3---------------
-2--2--------2--2--------|--2--2---------------
-0--0--5--5--0--0--5--5--|--0--0--2--2--5--5---
-0--0--5--5--0--0--5--5--|--0--0--2--2--5--5---
-0--0--5--5--0--0--5--5--|--0--0--2--2--5--5---
                                                                              

Bridge
--------------------------------------------
--------------------------------------------
-4--4--7--7--------4--4--7--7---------------
-4--4--7--7---7-7--4--4--7--7--7--7--5--5---
-2--2--5--5---5-5--2--2--5--5--7--7--5--5---
--------------5-5--------------7--7--5--5---
                                                                              
Comments