Breaking Benjamin - Rain Chords & Tabs

 

Rain Chords & Tabs

Breaking Benjamin Chords & Tabs

Version: 1 Type: Bass Tab 0 ratings
1 star 2 stars 3 stars 4 stars 5 stars
comments

Rain Bass Tab

Band- Breaking Benjamin
Song- Rain

Verses:
G---------------------|
D---------------------|
A-------------0-------|
E----------------3--1-|
B--1---1---1----------|
[ Tab from: http://www.guitartabs.cc/tabs/b/breaking_benjamin/rain_btab.html ]
Chorus:
G---------------------|
D---------------------|
A---------------------|
E--------1--------1---|
B--1-3------1-3-------|

Bridge:
G--------------------|
D--------------------|
A--0---------0-------|
E-----3-0-3----0-3---|
B--------------------|

Order:
Verse x 3
Chorus x 1
Verse x 2
Chorus x 2
Bridge x 2
Chorus x 3
Comments