Breaking Benjamin - Polyamorous Chords & Tabs

 

Polyamorous Chords & Tabs

Breaking Benjamin Chords & Tabs

Version: 9 Type: Tab 0 ratings
1 star 2 stars 3 stars 4 stars 5 stars
comments

Polyamorous Tab

Band: Breaking Benjamin
Song: Polyamorous
Album: Saturate (2002)
Tabbed by: Danny Carrera 

Tuning: Drop D

Intro:
Eb|--------------------------------| 
Bb|--------------------------------|
Gb|--------------------------------| 2X
Db|-8---4--------------------------|
Ab|-8-~-4-~------------------------|
Db|-8---4--------------------------|

Eb|--------------------------------| 
Bb|--------------------------------|
Gb|--------------------------------|  
Db|-88-8-00-0-44-44-4--------------| 4X
Ab|-88-8-00-0-44-44-4--------------|
Db|-88-8-00-0-44-44-4--------------|

And then the cool part..
Eb|--------------------------------| 
Bb|--------------------------------|
Gb|--------------------------------|  
Db|-88---------88------------------| 4X
Ab|-88-9-9-8-8-88-11-11-9-9--------|
Db|-88---------88------------------|

Verse:
Eb|--------------------------------------| 
Bb|--------------------------------------|
Gb|--------------------------------------|  
Db|------4-4-3-3-----4-4-3-3-----3-3-4-4-|
Ab|-1-1----------------------------------|
Db|--------------3-3---------4-4---------|

Eb|--------------------------------| 
Bb|--------------------------------|
Gb|--------------------------------|  
Db|-----4-4-3-3--------------------| 3x
Ab|--------------------------------|
Db|-1-1----------------------------|

Then...

Eb|--------------------------------------| 
Bb|--------------------------------------|
Gb|--------------------------------------|  
Db|------4-4-3-3-----4-4-3-3-----3-3-4-4-|
Ab|-1-1----------------------------------|
Db|--------------3-3---------4-4---------|

Eb|--------------------------------| 
Bb|--------------------------------|
Gb|--------------------------------|  
Db|------3/-------------------------|
Ab|------3/-------------------------|
Db|-1-1--3/-------------------------|



Chorus
Eb|------------------|       |--------------|----------------|
Bb|------------------|       |--------------|----------------|
Gb|------------------|       |--------------|----------------|
Db|0--6--4--0-4-3-0-3|2X     |0--6--4--xx--x|0--3--4--4-3-0-3|
Ab|0--6--4--0-4-3-0-3|       |0--6--4--xx--x|0--3--4--4-3-0-3|
Db|0--6--4--0-4-3-0-3|       |0--6--4--xx--x|0--3--4--4-3-0-3|

Then...
Eb|--------------------------------| 
Bb|--------------------------------|
Gb|--------------------------------|  
Db|-88------88---------------------| 2X
Ab|-88-9988-88-111199--------------|
Db|-88------88---------------------|

[ Tab from: http://www.guitartabs.cc/tabs/b/breaking_benjamin/polyamorous_tab_ver_9.html ]
Bridge
Eb|-------|-----------------------|
Bb|-------|-----------------------|
Gb|3---5-6|-----------------------|
Db|3---5-6|6--6--6--6--6--1--4--3-| 2X
Ab|1---3-4|3--4--3--4--3--1--4--3-|
Db|-------|3--4--3--4--3--1--4--3-|

Db|-------------------------------|-------------------------------|
Bb|-------------------------------|-------------------------------|
Gb|-------------------------------|-------------------------------|
Db|-------------------------------|-------------------------------|
Ab|1-1-1-1-1-1-1-1-3-3-3-3-4-4-4-4|-------------------------------|
Db|-------------------------------|3-3-3-3-3-3-3-3-4-4-4-4-3-3-3-3|

Eb|-------------------------------|-------------------------------|
Bb|-------------------------------|-------------------------------|
Gb|-------------------------------|-------------------------------|
Db|-------------------------------|-------------------------------|
Ab|-------------------------------|-------------------------------|
Db|4-4-4-4-4-4-4-4-4-4-4-4-3-3-3-3|1-1-1-1-1-1-1-1-4-4-4-4-3-3-3-3|

Eb|-------------------------------|-------------------------------|
Bb|-------------------------------|-------------------------------|
Gb|3-3-3-3-3-3-3-3-5-5-5-5-6-6-6-6|5-5-5-5-5-5-5-5-6-6-6-6-8-8-8-8|
Db|-------------------------------|-------------------------------|
Ab|1-1-1-1-1-1-1-1-3-3-3-3-4-4-4-4|3-3-3-3-3-3-3-3-4-4-4-4-6-6-6-6|
Db|-------------------------------|-------------------------------|

Eb|-------------------------------|-------------------------------|
Bb|-------------------------------|-------------------------------|
Gb|6-6-6-6-6-6-6-6-6-6-6-6-5-5-5-5|3-3-3-3-3-3-3-3-6-6-6-6-5-5-5-5|
Db|-------------------------------|-------------------------------|
Ab|4-4-4-4-4-4-4-4-4-4-4-4-3-3-3-3|1-1-1-1-1-1-1-1-4-4-4-4-3-3-3-3|
Db|-------------------------------|-------------------------------|

Eb|---------------------------|---------------|
Bb|---------------------------|---------------|
Gb|---------------------------|---------------|
Db|0--0--4-3-0-3-0--0--4-3-0-3|0--0--4-3-0-3-0|
Ab|0--0--4-3-0-3-0--0--4-3-0-3|0--0--4-3-0-3-0|


Outro to this awesome song
Eb|--------------|----------------|
Bb|--------------|----------------|
Gb|--------------|----------------|2X
Db|0--6--6--xx--x|0--6--6--4-3-0-3|
Ab|0--3--4--xx--x|0--3--4--4-3-0-3|
Db|0--3--4--xx--x|0--3--4--4-3-0-3|

Eb|----------------------------------|------------------|
Bb|----------------------------------|------------------|
Gb|----------------------------------|------------------|
Db|8--8-------------8--8-------------|8--8------------8\|
Ab|8--8--9-9-8-8----8--8--11-11-9--9-|8--8--9-9-8-8---8\|
Db|8--8-------------8--8-------------|8--8------------8\|

Enjoy!

This song is 100% correct.  You can even compare them. So, enjoy this awesome song.
Comments