Breaking Benjamin - Polyamorous Chords & Tabs

 

Polyamorous Chords & Tabs

Breaking Benjamin Chords & Tabs

Version: 7 Type: Tab 0 ratings
1 star 2 stars 3 stars 4 stars 5 stars
comments

Polyamorous Tab

   
Here is the correct version of Polyamorous. It sounds a lot better than the
others. So here it is. Any questions e-mail me. Sk8_or_die_131313@yahoo.com



Intro
Eb|-----------------
Bb|-------------10--
Gb|-11--------------
Db|----------12-----
Gb|-----------------
Ab|-----------------
Db|-----------------


Verse
effect off,  this part with distortion {repeat 2x}

Eb|---------------------------------------------------------------------------|
Bb|---------------------------------------------------------------------------|
Gb|---------------------------------------------------------------------------|
Db|---9-9--9-0-0--0-5-5--0-5-5--0-9-9--9-0-0--0-5-5-0-5p5p0-------------------|
Ab|---9-9--9-0-0--0-5-5--0-5-5--0-9-9--9-0-0--0-5-5-0-5p5p0-------------------|
Db|---9-9--9-0-0--0-5-5--0-5-5--0-9-9--9-0-0--0-5-5-0-5p5p0-------------------|
GTR 1 plays power chords while GTR 2 plays lead {repeat 2x}
Eb|---RIFF A------------------------------------------------------------------|
Bb|---------------------------------------------------------------------------|
Gb|---------------------------------------------------------------------------|
Db|---9-9-5544-9-9-7755-9-9-5544-9-9-7755-------------------------------------|
Ab|---9-9------9-9------9-9------9-9------------------------------------------|
Db|---9-9------9-9------9-9------9-9------------------------------------------|

VERSE GTR 1 plays rythm progression while GTR 2 plays lead repeat 4x}
Eb|---------------------------------------------------------------------------|
Bb|---------------------------------------------------------------------------|
Gb|---------------------------------------------------------------------------|
Db|-------5544-----5544-----4455-----5544-------------------------------------|
Ab|---------------------------------------------------------------------------|
Db|---9-9------4-4------5-5------2-2------------------------------------------|
  pm . .      . .      . .      . .
CHORUS 
Eb|---------------------------------------------------------------------------|
Bb|---------------------------------------------------------------------------|
Gb|---------------------------------------------------------------------------|
Db|---0---7---5---0-5-4-0h4-0---7---5--0-5-4-0h4------------------------------|
Ab|---0---7---5---0-5-4-0h4-0---7---5--0-5-4-0h4------------------------------|
Db|---0---7---5---0-5-4-0h4-0---7---5--0-5-4-0h4------------------------------|

Eb|---------------xx-x--------------------------------------------------------|
Bb|---------------xx-x--------------------------------------------------------|
Gb|---------------xx-x--------------------------------------------------------|
Db|---0---7---5---xx-x-0---4---5---0-5-4-0h4----------------------------------|
Ab|---0---7---5---xx-x-0---4---5---0-5-4-0h4----------------------------------|
Db|---0---7---5---xx-x-0---4---5---0-5-4-0h4----BACK TO RIFF A-2x-then verse--|
PLAY CHORUS AGAIN 2x

[ Tab from: http://www.guitartabs.cc/tabs/b/breaking_benjamin/polyamorous_tab_ver_7.html ]
BRIDGE GTR 1
Eb|---------------------------------------------------------------------------|
Bb|---------------------------------------------------------------------------|
Gb|---------------------------------------------------------------------------|
Db|---9---11--12--4---5--4--5---4--2---4--------------------------------------|
Ab|---9---11--12--4---5--4--5---4--2---4--------------------------------------|
Db|---9---11--12--4---5--4--5---4--2---4--------------------------------------|
BRIDGE GTR 2
Eb|---------------------------------------------------------------------------|
Bb|---------------------------------------------------------------------------|
Gb|---4---6---7--6---7--6--7---6--4---6---------------------------------------|
Db|---x---x---x--x---x--x--x---x--x---x---------------------------------------|
Ab|---2---4---5--4---5--4--5---4--2---4---------------------------------------|
Db|---------------------------------------------------------------------------|
BRIDGE part 2 GTR 1
Eb|---------------------------------------------------------------------------|
Bb|---------------------------------------------------------------------------|
Gb|---------------------------------------------------------------------------|
Db|---------------------------------------------------------------------------|
Ab|---------------------------------------------------------------------------|
Db|---9999999911111111121212124444444455554444555555555554444222222244444444--|
  pm ......................................................................
ok, those are elevens and twelves, sorry for any confusion.  second time this is
played GTR 2 comes in with the "octave power chords" as i like to call them

Eb|---------------------------------------------------------------------------|
Bb|---------------------------------------------------------------------------|
Gb|---------------------------------------------------------------------------|
Db|---0--0--5-4-0h4-0--0--5-4-0h4-0--0--5-4-0h4-0-----------------------------|
Ab|---0--0--5-4-0h4-0--0--5-4-0h4-0--0--5-4-0h4-0-----------------------------|
Db|---0--0--5-4-0h4-0--0--5-4-0h4-0--0--5-4-0h4-0--now play chorus 2x---------|
OUTRO GTR 1 {repeat 2x}
Eb|---------------------------------------------------------------------------|
Bb|---------------------------------------------------------------------------|
Gb|---------------------------------------------------------------------------|
Db|---0---4---5---xx-x-0---4---5---0-5-4-0h4----------------------------------|
Ab|---0---4---5---xx-x-0---4---5---0-5-4-0h4----------------------------------|
Db|---0---4---5---xx-x-0---4---5---0-5-4-0h4----------------------------------|

GTR 2
Eb|-----2-1-2-4-2--------2-1-2-4-2-1-2----------------------------------------|
Bb|---2----------------2------------------------------------------------------|
Gb|-------------------------------------PLAY RIFF A 2x then-------------------|
Db|----------------------------------------------------------7\0--------------|
Ab|----------------------------------------------------------7\0--------------|
Db|----------------------------------------------------------7\0--------------|

| /  slide up
| \  slide down
| h  hammer-on
| p  pull-off
| ~  vibrato
| +  harmonic
| x  Mute note
| pm palm mute
Comments