Breaking Benjamin - Polyamorous Chords & Tabs

 

Polyamorous Chords & Tabs

Breaking Benjamin Chords & Tabs

Version: 5 Type: Tab 0 ratings
1 star 2 stars 3 stars 4 stars 5 stars
comments

Polyamorous Tab

   
-------------------------------------------------------------------------------
			     POLYAMOROUS - Breaking Benjamin
-------------------------------------------------------------------------------
Tabbed by: Me
Email: Problemchild0165@AOL.com (no hate mail please)

Tuning: Dropped D one half step down (low to high): Db Ab Db Gb Bb Eb

Ok i sat in my room for like an hour learning this one and im damn sure it's
correct.  ignore the fact that the tabs are in standard tuning, im too lazy to
change the template =D.

INTRO (with rotary speaker effect)
e|---------------------------------------------------------------------------|
B|---------------------------------------------------------------------------|
G|---------------------------------------------------------------------------|
D|---------------------------------------------------------------------------|
A|---2---------2-------------------------------------------------------------|
E|--------5---------5--------------------------------------------------------|
effect off,  this part with distortion {repeat 2x}
e|---------------------------------------------------------------------------|
B|---------------------------------------------------------------------------|
G|---------------------------------------------------------------------------|
D|---9-9--9-0-0--0-5-5--0-5-5--0-9-9--9-0-0--0-5-5-0-5p5p0-------------------|
A|---9-9--9-0-0--0-5-5--0-5-5--0-9-9--9-0-0--0-5-5-0-5p5p0-------------------|
E|---9-9--9-0-0--0-5-5--0-5-5--0-9-9--9-0-0--0-5-5-0-5p5p0-------------------|
GTR 1 plays power chords while GTR 2 plays lead {repeat 2x}
e|---RIFF A------------------------------------------------------------------|
B|---------------------------------------------------------------------------|
G|---------------------------------------------------------------------------|
D|---9-9-5544-9-9-7755-9-9-5544-9-9-7755-------------------------------------|
A|---9-9------9-9------9-9------9-9------------------------------------------|
E|---9-9------9-9------9-9------9-9------------------------------------------|

VERSE GTR 1 plays rythm progression while GTR 2 plays lead repeat 4x}
e|---------------------------------------------------------------------------|
B|---------------------------------------------------------------------------|
G|---------------------------------------------------------------------------|
D|-------5544-----5544-----4455-----5544-------------------------------------|
A|---------------------------------------------------------------------------|
E|---9-9------4-4------5-5------2-2------------------------------------------|
  pm . .      . .      . .      . .
CHORUS 
e|---------------------------------------------------------------------------|
B|---------------------------------------------------------------------------|
G|---------------------------------------------------------------------------|
D|---0---7---5---0-5-4-0h4-0---7---5--0-5-4-0h4------------------------------|
A|---0---7---5---0-5-4-0h4-0---7---5--0-5-4-0h4------------------------------|
E|---0---7---5---0-5-4-0h4-0---7---5--0-5-4-0h4------------------------------|
[ Tab from: http://www.guitartabs.cc/tabs/b/breaking_benjamin/polyamorous_tab_ver_5.html ]
e|---------------xx-x--------------------------------------------------------|
B|---------------xx-x--------------------------------------------------------|
G|---------------xx-x--------------------------------------------------------|
D|---0---7---5---xx-x-0---4---5---0-5-4-0h4----------------------------------|
A|---0---7---5---xx-x-0---4---5---0-5-4-0h4----------------------------------|
E|---0---7---5---xx-x-0---4---5---0-5-4-0h4----BACK TO RIFF A-2x-then verse--|
PLAY CHORUS AGAIN 2x

BRIDGE GTR 1
e|---------------------------------------------------------------------------|
B|---------------------------------------------------------------------------|
G|---------------------------------------------------------------------------|
D|---9---11--12--4---5--4--5---4--2---4--------------------------------------|
A|---9---11--12--4---5--4--5---4--2---4--------------------------------------|
E|---9---11--12--4---5--4--5---4--2---4--------------------------------------|
BRIDGE GTR 2
e|---------------------------------------------------------------------------|
B|---------------------------------------------------------------------------|
G|---4---6---7--6---7--6--7---6--4---6---------------------------------------|
D|---x---x---x--x---x--x--x---x--x---x---------------------------------------|
A|---2---4---5--4---5--4--5---4--2---4---------------------------------------|
E|---------------------------------------------------------------------------|
BRIDGE part 2 GTR 1
e|---------------------------------------------------------------------------|
B|---------------------------------------------------------------------------|
G|---------------------------------------------------------------------------|
D|---------------------------------------------------------------------------|
A|---------------------------------------------------------------------------|
E|---9999999911111111121212124444444455554444555555555554444222222244444444--|
  pm ......................................................................
ok, those are elevens and twelves, sorry for any confusion.  second time this is
played GTR 2 comes in with the "octave power chords" as i like to call them

e|---------------------------------------------------------------------------|
B|---------------------------------------------------------------------------|
G|---------------------------------------------------------------------------|
D|---0--0--5-4-0h4-0--0--5-4-0h4-0--0--5-4-0h4-0-----------------------------|
A|---0--0--5-4-0h4-0--0--5-4-0h4-0--0--5-4-0h4-0-----------------------------|
E|---0--0--5-4-0h4-0--0--5-4-0h4-0--0--5-4-0h4-0--now play chorus 2x---------|
OUTRO GTR 1 {repeat 2x}
e|---------------------------------------------------------------------------|
B|---------------------------------------------------------------------------|
G|---------------------------------------------------------------------------|
D|---0---4---5---xx-x-0---4---5---0-5-4-0h4----------------------------------|
A|---0---4---5---xx-x-0---4---5---0-5-4-0h4----------------------------------|
E|---0---4---5---xx-x-0---4---5---0-5-4-0h4----------------------------------|

GTR 2
e|-----2-1-2-4-2--------2-1-2-4-2-1-2----------------------------------------|
B|---2----------------2------------------------------------------------------|
G|-------------------------------------PLAY RIFF A 2x then-------------------|
D|----------------------------------------------------------7\0--------------|
A|----------------------------------------------------------7\0--------------|
E|----------------------------------------------------------7\0--------------|

| /  slide up
| \  slide down
| h  hammer-on
| p  pull-off
| ~  vibrato
| +  harmonic
| x  Mute note
| pm palm mute
===============================================================================
Comments