Breaking Benjamin - Polyamorous Chords & Tabs

 

Polyamorous Chords & Tabs

Breaking Benjamin Chords & Tabs

Version: 3 Type: Tab 0 ratings
1 star 2 stars 3 stars 4 stars 5 stars
comments

Polyamorous Tab

   
Title:Polyamorous
Tabbed By: dosvadonia

Breaking Benjamin is a great group, take time to buy or download the songs...
But UG dosent have them in their database (Thay have a music video on MTV) so
here's the URL to the site : http://hollywoodrecords.go.com/breakingbenjamin/

any questions or comments e-mail me at dosvadonia@mindless.com


INTRO(1)
eb|---------------
Bb|---------11----
Gb|7----11-----11-
Db|---------------
Ab|---------------
Db|---------------

INTRO(2)
eb|-----------------------
Bb|-----------------------
Gb|-----------------------
Db|9-9-9-0-0--5-5-5-4-5-4-
Ab|9-9-9-0-0--5-5-5-4-5-4-
Db|9-9-9-0-0--5-5-5-4-5-4-

PRE-VERSE
eb|---------------------------
Bb|---------------------------
Gb|---------------------------
Db|0-0--5-5-4-4--0-0--7-7-5-5-
Ab|0-0-----------0-0----------
Db|0-0-----------0-0----------

VERSE
eb|------------------------------------------------
Bb|------------------------------------------------
Gb|------------------------------------------------
Db|----5-5-4-4-----4-4-5-5-----5-5-7-7-----7-7-5-5-
Ab|------------------------------------------------
Db|0-0---------0-0---------0-0---------0-0---------
PM.................................................

CHORUS
eb|----------------
Bb|----------------
Gb|----------------
Db|0-7-5-4-0-7-5-4-
Ab|0-7-5-4-0-7-5-4-
Db|0-7-5-4-0-7-5-4-
[ Tab from: http://www.guitartabs.cc/tabs/b/breaking_benjamin/polyamorous_tab_ver_3.html ]
PRE-VERSE

VERSE

CHORUS

BRIDGE(1)
Rhythm Guitar
eb|-------------------------------------------------------------------------------
Bb|-------------------------------------------------------------------------------
Gb|-------------------------------------------------------------------------------
Db|-------------------------------------------------------------------------------
Ab|-------------------------------------------------------------------------------
Db|9-9-9-9-9-9-9-9-11-11-11-11-12-12-12-12-5-5-5-5-5-5-5-5-12-12-12-12-11-11-11-11

BRIDGE(1)
Lead Guitar
eb|---------------------------------------------------------------
Bb|2-2-2-2-2-2-2-2-4ó4-4-4-5-5-5-5-----------------5-5-5-5-4-4-4-4
Gb|--------------------------------2-2-2-2-2-2-2-2----------------
Db|---------------------------------------------------------------
Ab|---------------------------------------------------------------
Db|---------------------------------------------------------------

BRIDGE(2)
Rhythm Guitar
eb|
Bb|
Gb|
Db|--0-0-------------0-0-------------0-0-------------0
Ab|--0-0--10-10-9-9--0-0--12-12-9-9--0-0--10-10-9-9--0
Db|--0-0--10-10-9-9--0-0--12-12-9-9--0-0--10-10-9-9--0

BRIDGE(2)
Lead Guitar
eb|
Bb|5-5-5-5-6-6-6-6-8-8-8-8-8\0
Gb|
Db|
Ab|(Iím just guessing, but thereís heavy wah)
Db|

CHORUS
Comments