Breaking Benjamin - Polyamorous Chords & Tabs

 

Polyamorous Chords & Tabs

Breaking Benjamin Chords & Tabs

Version: 2 Type: Bass Tab 0 ratings
1 star 2 stars 3 stars 4 stars 5 stars
comments

Polyamorous Bass Tab

Intro (wait for guitar)

|------------------
|------------------
|-22---55----------     x4
|-----------55---55  


Bridge

|------------------
|------------------
|------------------     x2
|-99---99---99---99


Verse

|------------------
|------------------
|------------------     x4 
|-99---44---55---22


Chrous

|------------------
|------------------
|------------------     x2
|-0-7-5--0-5-4-0-4- 

|----------------------------
|----------------------------
|----------------------------
|-0-7-5--55-4-0-4-5-0-5-4-0-4


Repeat verse

|------------------
|------------------
|------------------     x4 
|-99---44---55---22


Repeat Chorus (2x)

|------------------
|------------------
|------------------     x2
|-0-7-5--0-5-4-0-4-

|-----------------------------
|-----------------------------
|-----------------------------
|-0-7-5--55-4-0-4-5-0-5-4-0-4-


Solo
[ Tab from: http://www.guitartabs.cc/tabs/b/breaking_benjamin/polyamorous_btab_ver_2.html ]
|---------------66--------77--------44----
|---99------------------------------------
|-----------------------------------------     x2
|-9----11-12--4----5-4-5-----5-4-2-----5-4

(You have to slap the notes on the E string, and pluck the notes on the D and G strings)


Bridge (x2)

|-------------------------------------------------------------
|-------------------------------------------------------------
|-------------------------------------------------------------
|-999999999-11(x4)-12(x4)-44444444-5555-4444-555555555555-4444

(bridge cont.)

|-------------------
|-------------------
|-------------------
|-22222222-5555-4444


then

|------------------
|------------------
|------------------
|-99---99---99---99


Repeat Chorus (x2)

|-----------------
|-----------------
|-----------------    x2
|-0-7-5--0-5-4-0-4

|----------------------------
|----------------------------
|----------------------------
|-0-7-5--55-4-0-4-5-0-5-4-0-4


Ending

|------------------
|------------------
|------------------  x2
|-0-7-5--55-4-0-4-5

|------------------
|------------------
|------------------
|-99---99---99---99

This is my first tab. I think its right. It sounds right when I play it so.
Comments