Breaking Benjamin - Polyamorous Acoustic Chords & Tabs

 

Polyamorous Acoustic Chords & Tabs

Breaking Benjamin Chords & Tabs

Version: 1 Type: Tab 0 ratings
1 star 2 stars 3 stars 4 stars 5 stars
comments

Polyamorous Acoustic Tab

Band: Breaking Benjamin
Song: Polyamorous (Acoustic)
Album: Saturate
Tabbed by: Brandon Teves
Tuning: Drop D  1/2 step down
	

Note: This is my first tab and I just recently heard this version of this song for the
first time. Itís a pretty good and its pretty much the same thing as the original the
only difference is the verse and it sounds close but I donít think its 100% but it
sounds close. I also think there is a second guitar in the verse the strums but im not
sure. I havenít found any other tabs for this song so I figured id give it a shot. If u
have any corrections or comments please e-mail me at teves14@hotmail.com




INTRO
Eb|---------------------------|       |-------------------------------|
Bb|---------------------------|       |-------------------------------|
Gb|4-4---4--------------------|Repeat |4-4---4------------------------|
Db|4-4---4-0-0---0-5-5---0-5-5|  2x   |4-4---4-0-0---0-5-5---0-5-4-0-4|
Ab|2-2---2-0-0---0-5-5---0-5-5|       |2-2---2-0-0---0-5-5---0-5-4-0-4|
Db|--------0-0---0-5-5---0-5-5|       |--------0-0---0-5-5---0-5-4-0-4|

Eb|----------------------------------|
Bb|----------------------------------|
Gb|----------------------------------|Repeat
Db|9--9-------------9--9-------------|  3x
Ab|9--9--10-10-9-9--9--9--12-12-10-10|
Db|9--9-------------9--9-------------|




VERSE
Eb|----------------------------|----------------------------|
Bb|----------------------------|----------------------------|
Gb|----0---0--0-0--0-----------|----0---0--0-0--0-----------|Repeat
Db|---4-4-4-4--4--4-4----------|---4-4-4-4--4--4-4----------|  2x
Ab|--2-------------------------|--2-------------------------|
Db|------4---5---2-------------|------4---5---2-------------|

Eb|----------------------------|----------------------------|
Bb|----------------------------|----------------------------|
Gb|----0---0--0-0--0-----------|----0---0--0-0--0-----------|
Db|---4-4-4-4--4--4-4----------|---4-4-4-4--4--4-4--------4/|
Ab|--2-------------------------|--2-----------------------4/|
Db|------4---5---2-------------|------4---5---2-----------4/|




CHORUS
Eb|------------------|       |--------------|----------------|
Bb|------------------|       |--------------|----------------|
Gb|------------------|Repeat |--------------|----------------|
Db|0--7--5--0-5-4-0-4|       |0--7--5--xx--x|0--7--7--5-4-0-4|
Ab|0--7--5--0-5-4-0-4|       |0--7--5--xx--x|0--4--5--5-4-0-4|
Db|0--7--5--0-5-4-0-4|       |0--7--5--xx--x|0--4--5--5-4-0-4|



[ Tab from: http://www.guitartabs.cc/tabs/b/breaking_benjamin/polyamorous_acoustic_tab.html ]
BRIDGE
Eb|-------|-------|-------|-------|
Bb|-------|-------|-------|-------|
Gb|4---6-7|-------|-------|-------|Repeat
Db|4---6-7|7---7-7|7---7-7|5---7-7|
Ab|2---4-5|4---5-4|5---5-4|2---5-4|
Db|-------|4---5-4|5---5-4|2---5-4|

Db|-------------------------------|-------------------------------|
Bb|-------------------------------|-------------------------------|
Gb|-------------------------------|-------------------------------|
Db|-------------------------------|-------------------------------|
Ab|2-2-2-2-2-2-2-2-4-4-4-4-5-5-5-5|-------------------------------|
Db|-------------------------------|4-4-4-4-4-4-4-4-5-5-5-5-4-4-4-4|

Eb|-------------------------------|-------------------------------|
Bb|-------------------------------|-------------------------------|
Gb|-------------------------------|-------------------------------|
Db|-------------------------------|-------------------------------|
Ab|-------------------------------|-------------------------------|
Db|5-5-5-5-5-5-5-5-5-5-5-5-4-4-4-4|2-2-2-2-2-2-2-2-5-5-5-5-4-4-4-4|

Eb|-------------------------------|-------------------------------|
Bb|-------------------------------|-------------------------------|
Gb|4-4-4-4-4-4-4-4-6-6-6-6-7-7-7-7|6-6-6-6-6-6-6-6-7-7-7-7-9-9-9-9|
Db|-------------------------------|-------------------------------|
Ab|2-2-2-2-2-2-2-2-4-4-4-4-5-5-5-5|4-4-4-4-4-4-4-4-5-5-5-5-7-7-7-7|
Db|-------------------------------|-------------------------------|

Eb|-------------------------------|-------------------------------|
Bb|-------------------------------|-------------------------------|
Gb|7-7-7-7-7-7-7-7-7-7-7-7-6-6-6-6|4-4-4-4-4-4-4-4-7-7-7-7-6-6-6-6|
Db|-------------------------------|-------------------------------|
Ab|5-5-5-5-5-5-5-5-5-5-5-5-4-4-4-4|2-2-2-2-2-2-2-2-5-5-5-5-4-4-4-4|
Db|-------------------------------|-------------------------------|

Eb|---------------------------|---------------|
Bb|---------------------------|---------------|
Gb|---------------------------|---------------|
Db|0--0--5-4-0-4-0--0--5-4-0-4|0--0--5-4-0-4-0|
Ab|0--0--5-4-0-4-0--0--5-4-0-4|0--0--5-4-0-4-0|
Db|0--0--5-4-0-4-0--0--5-4-0-4|0--0--5-4-0-4-0|




outro
Eb|--------------|----------------|
Bb|--------------|----------------|
Gb|--------------|----------------|Repeat
Db|0--7--7--xx--x|0--7--7--5-4-0-4|
Ab|0--4--5--xx--x|0--4--5--5-4-0-4|
Db|0--4--5--xx--x|0--4--5--5-4-0-4|

Eb|----------------------------------|-------------------|
Bb|----------------------------------|-------------------|
Gb|----------------------------------|-------------------|
Db|9--9-------------9--9-------------|9--9-------------9\|
Ab|9--9-------------9--9-------------|9--9-------------9\|
Db|9--9--10-10-9-9--9--9--12-12-10-10|9--9--10-10-9-9--9\|




/  slide up
\  slide down


Comments