Breaking Benjamin - Polyamorous (3) Chords & Tabs

 

Polyamorous (3) Chords & Tabs

Breaking Benjamin Chords & Tabs

Version: 1 Type: Tab 2 ratings
1 star 2 stars 3 stars 4 stars 5 stars
comments

Polyamorous (3) Tab

   
Breaking Benjamin
“Polyamorous”

Guitars 1 & 2 Drop-D Tuning Down ½ Step
Low to High (DbAbDbGbBbEb)

Key:	x = mute
	/ = slide
	p = pull off
	h = hammer on
	P.M. = palm mute
	N.H. = natural harmonic

Intro I.1: Guitar 1 w/delay (play 1 time)

Eb|-----------------------------|Eb
Bb|-----------------------------|Bb
Gb|--4-------4------------------|Gb
Db|--4---5---4---5--------------|Db
Ab|------5-------5--------------|Ab
Db|-----------------------------|Db
                 |--Vol. swell-|

Intro I.2: Guitar 1 (play 1 time then play Intro I.2 Fill)

Eb|-------------------------------------------------------------------|Eb
Bb|-------------------------------------------------------------------|Bb
Gb|-------------------------------------------------------------------|Gb
Db|-9-9--9--0-0--0--5-5--0--5-5--0--9-9--9--12-12--12--5-5--0--5-5--0-|Db
Ab|-9-9--9--0-0--0--5-5--0--5-5--0--9-9--9--12-12--12--5-5--0--5-5--0-|Ab
Db|-9-9--9--0-0--0--5-5--0--5-5--0--9-9--9--12-12--12--5-5--0--5-5--0-|Db

Intro I.2 Fill: Guitar 1 (play 1 time)

Eb|--------------------------------------------------------------------|Eb
Bb|--------------------------------------------------------------------|Bb
Gb|--------------------------------------------------------------------|Gb
Db|-9-9--9--0-0--0--5-5--0--5-5--0--9-9--9--12-12--12--5-5--0--5p4h5p4-|Db
Ab|-9-9--9--0-0--0--5-5--0--5-5--0--9-9--9--12-12--12--5-5--0--5p4h5p4-|Ab
Db|-9-9--9--0-0--0--5-5--0--5-5--0--9-9--9--12-12--12--5-5--0--5p4h5p4-|Db


Pre-verse: Guitar 1 (play as many times as noted in Breakdown **see below**)

Eb|-------------------------------------------------------------|Eb
Bb|-------------------------------------------------------------|Bb
Gb|-------------------------------------------------------------|Gb
Db|-9-9-----------9-9-------------9-9-----------9-9-------------|Db
Ab|-9-9-10-10-9-9-9-9-12-12-10-10-9-9-10-10-9-9-9-9-12-12-10-10-|Ab
Db|-9-9-----------9-9-------------9-9-----------9-9-------------|Db
   |P.M|         |P.M|           |P.M|         |P.M|


Verse: Guitar 1 (play 3 times then play Fill 1.1)

Eb|---------------------------------------------------|Eb
Bb|---------------------------------------------------|Bb
Gb|---------------------------------------------------|Gb
Db|-9-9-----------4-4-7-7-5-5-5-5-4-4-5-5-2-2-5-5-4-4-|Db
Ab|-9-9-10-10-9-9-4-4---------5-5---------2-2---------|Ab
Db|-9-9-----------4-4---------5-5---------2-2---------|Db
  |----------------------P.M.-------------------------|

Fill 1.1: Guitar 1 (play 1 time)

Eb|------------------------------------------------|Eb
Bb|------------------------------------------------|Bb
Gb|------------------------------------------------|Gb
Db|-9-9-----------4-4-7-7-5-5-5-5-4-4-5-5-2-2-2--4-|Db
Ab|-9-9-10-10-9-9-4-4---------5-5---------2-2-2--4-|Ab
Db|-9-9-----------4-4---------5-5---------2-2-2--4-|Db
  |--------------------P.M.--------------------|


Chorus: Guitar 1 (play as many times as noted in Breakdown **see below**)

Eb|----------------------------------------------------------------|Eb
Bb|----------------------------------------------------------------|Bb
Gb|----------------------------------------------------------------|Gb
Db|-0--7--5--5p4h5p4--0--7--5--5p4h5p4--0--7--5--4h5-5--0--7--7--7-|Db
Ab|-0--7--5--5p4h5p4--0--7--5--5p4h5p4--0--7--5--4h5-5--0--4--5--7-|Ab
Db|-0--7--5--5p4h5p4--0--7--5--5p4h5p4--0--7--5--4h5-5--0--4--5--7-|Db
                                                  |PM |


Bridge: Guitar 1 (play as indicated in Breakdown **see below** then play Fill 1.2)
[ Tab from: http://www.guitartabs.cc/tabs/b/breaking_benjamin/polyamorous_3_tab.html ]
Eb|--------------------------------------|Eb
Bb|--------------------------------------|Bb
Gb|--------------------------------------|Gb
Db|-/9--11-12/--4--5-4-7--5--4/--2--2/-4-|Db
Ab|-/9--11-12/--4--5-4-5--5--4/--2--2/-4-|Ab
Db|-/9--11-12/--4--5-4-5--5--4/--2--2/-4-|Db

Fill 1.2: Guitar 1 (play 1 time)

Eb|------------------------------------------------------|Eb
Bb|------------------------------------------------------|Bb
Gb|------------------------------------------------------|Gb
Db|-0--0-0--5p4h5p4--0--0-0--5p4h5p4--0--0-0--5p4h5p4--0-|Db
Ab|-0--0-0--5p4h5p4--0--0-0--5p4h5p4--0--0-0--5p4h5p4--0-|Ab
Db|-0--0-0--5p4h5p4--0--0-0--5p4h5p4--0--0-0--5p4h5p4--0-|Db


Outro O.1: Guitar 1 (play 2 times)

Eb|-------------------------------|Eb
Bb|-------------------------------|Bb
Gb|-------------------------------|Gb
Db|-0--7--5--x-x--x--0--7--5--4h5-|Db
Ab|-0--4--5--x-x--x--0--4--5--4h5-|Ab
Db|-0--4--5--x-x--x--0--4--5--4h5-|Db

Fill 2.1: Guitar 2 (play 2 times along with Outro O.1)

Eb|-----------------------------------------------------------|Eb
Bb|------7-7-----7-7-8-8-7-7------7-7-----7-7-8-8-7-7-----7-7-|Bb
Gb|-/7-7-----9-9--------------7-7-----9-9-------------9-9-----|Gb
Db|-----------------------------------------------------------|Db
Ab|-----------------------------------------------------------|Ab
Db|-----------------------------------------------------------|Db
       
**NO slide 2nd time through**

Outro O.2: Guitar 1 (play 1 time)

Eb|------------------------------------------------|Eb
Bb|------------------------------------------------|Bb
Gb|------------------------------------------------|Gb
Db|-9-9-----------9-9-------------9-9-----------9/-|Db
Ab|-9-9-10-10-9-9-9-9-12-12-10-10-9-9-10-10-9-9-9/-|Ab
Db|-9-9-----------9-9-------------9-9-----------9/-|Db
   |P.M|         |P.M|           |P.M|


Breakdown:

Intro I.1 (Guitar 1 plays 1 time w/delay)

Intro I.2 (Guitar 1 plays 1 time)
	  (Guitar 1 plays Intro I.2 Fill)

Pre-verse (Guitar 1 plays 2 times)

Verse (Guitar 1 plays 3 times)
      (Guitar 1 plays Fill 1.1)

Chorus (Guitar 1 plays 1 time)

Pre-verse (Guitar 1 plays 1 time)

Verse (Guitar 1 plays 3 times)
      (Guitar 1 plays Fill 1.1)

Chorus (Guitar 1 plays 2 times)

Bridge (Guitar 1 plays 2 times)
       (Guitar 1 plays 1 time palm muted and picked moderately fast)
       (Guitar 1 plays 1 time picked moderately fast)
       (Guitar 1 plays Fill 1.2)

Chorus (Guitar 1 plays 2 times)

Outro (Guitar 1 plays Outro O.1 while Guitar 2 plays Fill 2.1)
      (Guitar 1 plays Outro O.2)
	

Lyrics:

Let’s go

(Verse 1)
The day has come to an end
The sun is over my head
My polyamorous friend
He got me in a mess of trouble again

(Chorus ½)
So just when you think that you’re all right
I’m crawling out from the inside
I never hurt anyone
I never listen at all

(Verse 2)
They’ve come to get me again
The cloud is over my head
My polyamorous friend
He got me in a mess of trouble again

(Chorus)
So just when you think that you’re all right
I’m crawling out from the inside
I never hurt anyone
I never listen at all
Just stay away from the white line
I’d say your worst side’s your best side
I never hurt anyone
I never listen at all

Well, how do you know? (x4)

(Chorus)
Just when you think that you’re all right
I’m crawling out from the inside
I never hurt anyone
I never listen at all
Just stay away from the white line
I’d say your worst side’s your best side
I never hurt anyone
I never listen at all

Let’s go	


”Polyamorous” written by Breaking Benjamin
[Saturate (2002)]



**This isn't 100% perfect, but I think 
that it's close enough...Try to play along
with the CD if you have any problems.

Good luck & enjoy,
-"Otis"
Comments